Guitar Tabs, Chords and Lyrics
Update 25:10. 13:00. Site is back up running again. Songbooks are recovered. Woring on getting search back up..


Star Shaped  Blur

[Intro] 
[G] [A] [G] [B7] [D]  
 
 e|------------------0---1---1---2------------------------|
 B|--3-/-5-\-3-------0---0---0---3------------------------|
 G|--0-/-0-\-0---2---2---2---2---2------------------------|
 D|--0-/-0-\-0---1---1---1---1---0---------7----0---------|
 A|--2-/-4-\-2---2-------------------5-4-5----4---4-------|
 E|--3-/-5-\-3---0-----------------------------------0----| 

[Verse 1] 
Wash[A] w[/]ith n[/]ew so[///]ap [F#m] behi[/]nd th[/]e col[///]lar
 
 e|--0---0----0-0--0--------2----2-----2-2--2----|
 B|--2---2----2-2--2--------2----2-----2-2--2----|
 G|--2---2----2-2--2--------2----2-----2-2--2----|
 D|--2---2----2-2--2--------4----4-----4-4--4----|
 A|--0---0----0-0--0--------4----4-----4-4--4----|
 E|-------------------------2----2-----2-2--2----| 

Ke[G]eps a clean mental [F#m]state[G#m]
 
 e|--------------------2---4-----------------------|
 B|-3--3--3--3--3--3---2---4-----------------------|
 G|-4--4--4--4--4--4---2---4-----------------------|
 D|-5--5--5--5--5--5---4---6-----------------------|
 A|-5--5--5--5--5--5---4---6-----------0-2-4/5\4---|
 E|------------------------------0-2-4-------------|

Don'[A]t usually bother [F#m]in cold weather
 
 e|--0---0----0-0--0--------2----2-----2-2--2----|
 B|--2---2----2-2--2--------2----2-----2-2--2----|
 G|--2---2----2-2--2--------2----2-----2-2--2----|
 D|--2---2----2-2--2--------4----4-----4-4--4----|
 A|--0---0----0-0--0--------4----4-----4-4--4----|
 E|-------------------------2----2-----2-2--2----| 

Bu[G]t still I'm getting[F#m] into[G#m/] work late.
 
 e|--------------------2---4-----------------------|
 B|-3--3--3--3--3--3---2---4-----------------------|
 G|-4--4--4--4--4--4---2---4-----------------------|
 D|-5--5--5--5--5--5---4---6-----------------------|
 A|-5--5--5--5--5--5---4---6-----------0-2-4/5\4---|
 E|------------------------------0-2-4-------------|

And[D] I don[A]'t nee[B]d the [C]practice.
 
 e|-2--2--0--0--2-----3-3-3-----------------------|
 B|-3--3--2--2--4-----5-5-5-----------------------|
 G|-2--2--2--2--4-----5-5-5-----------------------|
 D|-0--0--2--2--4-----5-5-5-----------------------|
 A|-0--0--0--0--2-----3-3-3-----------------------|
 E|-----------------------------------------------|

[Cborus] 
I've[E] been[C#m] maki[B]ng p[G]lans[A] (f[G]or th[B7]e future)
 
 e|--0-0--4-4--2-----------------------------|
 B|--0-0--5-5--4---3-/-5-\-3-----------------|
 G|--1-1--6-6--4---0-/-0-\-0---2-------------|
 D|--2-2--6-6--4---0-/-0-\-0---1-------------|
 A|--2-2--4-4--2---2-/-4-\-2---2-------------|
 E|----------------3-/-5-\-3---0-------------| 

Beco[E]me an[C#m] unco[B]nsci[G]ous [A]man[G] (all[B7] for the good)
 
 e|--0-0--4-4--2-----------------------------|
 B|--0-0--5-5--4---3-/-5-\-3-----------------|
 G|--1-1--6-6--4---0-/-0-\-0---2-------------|
 D|--2-2--6-6--4---0-/-0-\-0---1-------------|
 A|--2-2--4-4--2---2-/-4-\-2---2-------------|
 E|----------------3-/-5-\-3---0-------------| 

I f[E]eel [C#m]so unn[B]ece[G]ssar[A]y ([G]We d[B7]on't think so you[D] seem starshaped)
 
 e|-0-0--4-4--2------------------0---1---1---2----------------|
 B|-0-0--5-5--4--3-/-5-\-3-------0---0---0---3----------------|
 G|-1-1--6-6--4--0-/-0-\-0---2---2---2---2---2----------------|
 D|-2-2--6-6--4--0-/-0-\-0---1---1---1---1---0-------7---0----|
 A|-2-2--4-4--2--2-/-4-\-2---2-----------------5-4-5---4---4--|
 E|--------------3-/-5-\-3---0-------------------------------0| 

[Verse 2] 
[A]I have a couple [F#m]at the weekend
G F#m G#m /riff 2
Keeps up camaraderie
[A]And my mind boggles[F#m] in the muddle,
[G]At the po[F#m]ssibili[G#m]ties
And[D] I don[A]'t nee[B]d the [C]practice.
[Cborus] 
I've[E] been[C#m] maki[B]ng p[G]lans[A] (f[G]or th[B7]e future)
Beco[E]me an[C#m] unco[B]nsci[G]ous [A]man[G] (all[B7] for the good)
I f[E]eel [C#m]so unn[B]ece[G]ssar[A]y ([G]We d[B7]on't think so yo[D]u seem starshaped)
(Repeat)
Interlude (first flute arr. for guitar, then guitar solo)
[A] [/] [/] [///] [F#m] [/] [/] [///]  
 
 e|--------------0----------------------------------|
 B|--2-------2-----------------2--------------------|
 G|------4-----------2--1--2------4--2--4-2--4--2--4|
 D|-------------------------------------------------|
 A|-------------------------------------------------|
 E|-------------------------------------------------| 

[G] [F#m] [G#m]  
 
 e|---------0----------------------------------------------|
 B|-2----2--------------2--------------------------0??2h3-2-|
 G|---4--------2--1--2-----4--2--4-2--4--2--4--1-2---------|
 D|--------------------------------------------------------|
 A|--------------------------------------------------------|
 E|--------------------------------------------------------| 

Gutiar solo - fast...
[A] [F#m] [G] [F#m] [G#m] [D]  
 
 e|-0-0------------------3--3-3-3-3-3-2--4---5-5----------|
 B|-2-2----------------3----3-3-3-3-3-2--4---7-7----------|
 G|-2-2-0-2-0------2/4------4-4-4-4-4-2--4---7-7-------4b5| x 2
 D|-2-2-------2-4-----------5-5-5-5-5-4--6---7-7----------|
 A|-0-0---------4-----------5-5-5-5-5-4--6---5-5----------|
 E|-------------------------3-3-3-3-3-2--4-------3-2-3----| 

then...
[D] [A] [B] [C]  
 
 e|-2--2--0--0--2-----3-3-3-----------------------|
 B|-3--3--2--2--4-----5-5-5-----------------------|
 G|-2--2--2--2--4-----5-5-5-----------------------|
 D|-0--0--2--2--4-----5-5-5-----------------------|
 A|-0--0--0--0--2-----3-3-3-----------------------|
 E|-----------------------------------------------|

[Verse 3] 
[A]I was[F#m]h with new soap, behind the collar
[G]Helps ke[F#m]ep down[G#m] the laundry.
[A]And now I b[F#m]other, in cold weather,
[G]Because it[F#m] cleans[G#m] me mentally.
[D]And I [A]reall[B]y don[C]'t need the practice
[Cborus] (repeat x4)
I've been making plans (for the future)
Become an unconscious man (all for the good)
I feel so unnecessary (We don't think so you seem starshaped)
And I??ve been making plans (for the future)
Become an unconscious man (all for the good)
I feel so unnecessary (We don't think so you seem starshaped
I've been making plans (for the future)
Become an unconscious man (all for the good)
I feel so unnecessary (We don't think so you seem starshaped)
And I??ve been making plans (for the future)
Become an unconscious man (all for the good)
I feel so unnecessary (We don't think so you seem starshaped
Ending chord fill-in (with some flute on top of it)
[D]  
 
 e|-2--0-----7-----------------7-------------------|
 B|-3----3-----5-----7--5---------5------7--5------|
 G|-2------------7---------7---------7----------7--|
 D|------------------------------------------------| x 7 (fade out)
 A|------------------------------------------------|
 E|------------------------------------------------| 


Important: The song above is NOT stored on the Chordie server. The original song is hosted at www.azchords.com. Chordie works as a search engine and provides on-the-fly formatting. Chordie does not index songs against artists'/composers' will. To remove this song please click here.

Text color:
Chord color:
Chord grids: 
Font size:    
Page size: 

A B B7 C C#m D E F#m G G#m
Rate #2 of 4 versions

Jango Player

Login - add to songbook

SHARE PAGE  



You need to log in to post comments