Guitar Tabs, Chords and Lyrics
Update 25:10. 13:00. Site is back up running again. Songbooks are recovered. Woring on getting search back up..


You Are My Star  Bob Catley

BOB CATLEY ?? You Are My Star
Intro 1:
 
 e---------------|---------------|---------------|--------------|
 B---------------|---8-----------|---------------|---5----------|
 G-9-10-9-7------|-9---9-10------|-9-10-9-7------|-5---5-7------|
 D---------------|---------------|---------------|--------------|
 A---------------|---------------|---------------|--------------|
 E---------------|---------------|---------------|--------------|

[C] [Bb] [C] [Dm] [C] [Bb] [Am] [Dm] 
Intro 2:
 
 e--------------------|-----15------------|
 B-17b(18)r17-15------|-/17----17-18------|
 G--------------------|-------------------|
 D--------------------|-------------------|
 A--------------------|-------------------|
 E--------------------|-------------------|

[C] [Bb] [C] [Dm]  
 
 e--------------------|----12------------|
 B-17b(18)r17-15------|-13----13-15------|
 G--------------------|------------------|
 D--------------------|------------------|
 A--------------------|------------------|
 E--------------------|------------------|

[C] [Bb] [Am] [Dm]  
Verse 1:
[C] [Bb] My search isn't over
[C] [Dm] There are more places to go
[C] [Bb] I will look to the mountains [Am] and [Dm]the valleys below
[C] [Bb] I'll follow the stars
[C] [Dm] They'll show me the way
[C] [Bb] The time will come when [Am]I will [G]find out where you stay
Chorus:
F C(F)*
You cannot hide from me
Is it so [Dm]hard to [C/E]see
I will [F]always find [Bb]you
F C(F)*
And I won't let you run away
It's better if you [Dm]stay where you [C/E]are
You [F]won't get [Bb]far
Cause [F]you are my [Bb]star
repeat Intro 1
Verse 2:
[C] [Bb] I can feel it's not far now
[C] [Dm] I travel by night
[C] [Bb] I will continue my walk [Am] until I [Dm]can reach your life
[C] [Bb] I know you are close now
[C] [Dm] I know you are lost
[C] [Bb] When will you under[Am]stand that it's [G]me that you can trust
repeat Chorus
Bridge:
[Db] I will [Eb]give you shelter
[Cm] I will pro[Ab]tect you now
Db Eb Fm riff**
I will save you from this dark
[Db] I will [Eb]listen to you
[Cm] I will [Ab]keep you warm
[Db] Yes I will [Eb]save you from this [Bb]harm
Solo rhythm:
[Bb]C, Bb, C, Dm
C, Bb, Am, Dm
C, Bb, C, Dm
C, Bb, Am, G
repeat Chorus twice
repeat Intro 2
* C(F) ?? guitar 1 plays F chord, guitar 2 plays C chord
** Fm riff:
 
 e-----------------------------------|
 B-----------------------------------|
 G-8-10-10-8-10--8---10-10-8-13-12---|
 D-8-10-10-8-10--8---10-10-8-13-12---|
 A-6--8--8-6--8--6----8--8-6-11-10---|
 E-----------------------------------|


Important: The song above is NOT stored on the Chordie server. The original song is hosted at www.azchords.com. Chordie works as a search engine and provides on-the-fly formatting. Chordie does not index songs against artists'/composers' will. To remove this song please click here.

Text color:
Chord color:
Chord grids: 
Font size:    
Page size: 

Ab Am Bb C C/E Cm Db Dm Eb F G
Rate #1 of 1 versions

Login - add to songbook

SHARE PAGE  




You need to log in to post comments