Guitar Tabs, Chords and Lyrics
Major upgrade!! After one year development the new version of Chordie is now online! Please give feedback.


World Gone Wrong  Bob Dylan

Tuning:EADGBE
Capo II
C C/F Caug Fmaj7 G
 
 e|-0---0----0----0-----3-----------------------------------------------------|
 B|-1---1----1----1-----0-----------------------------------------------------|
 G|-0---0----1----2-----0-----------------------------------------------------|
 D|-2---3----0----3-----0-----------------------------------------------------|
 A|-3-------------x-----2-----------------------------------------------------|
 E|---------------x-----3-----------------------------------------------------|

[C]  
[C/F]Strange things have ha[C]ppened like [C/F]never be[C]fore
[C/F]My baby told me I would have to [C]go
Caug F Caug F
I can't be good no more, once like I did before
I can't be good, ba[G]by
[C]Honey, because the world go[G]ne wr[C]ong.
 
 e|-0-1--3--1------0---0-0----------------------------------------------------|
 B|-0-0--3--0--4---1---0h1----------------------------------------------------|
 G|------------4---0---0h0----------------------------------------------------|
 D|----------------2---0h2----------------------------------------------------|
 A|----------------3----------------------------------------------------------|
 E|---------------------------------------------------------------------------|

[C/F]Feel bad this morning,[C] ain't got n[C/F]o home[C]
[C/F]No use in worrying cause the wor[C]ld gone wrong
Caug F Caug F
I can't be good no more, once, like I did before
I can't be good ba[G]by
[C]Honey, because the world go[G]ne wr[C]ong.
 
 e|-0-1--3--1------0---0-0----------------------------------------------------|
 B|-0-0--3--0--4---1---0h1----------------------------------------------------|
 G|------------4---0---0h0----------------------------------------------------|
 D|----------------2---0h2----------------------------------------------------|
 A|----------------3----------------------------------------------------------|
 E|---------------------------------------------------------------------------|

[C/F]I told you baby, right[C] to your hea[C/F]d[C]
[C/F]If I didn't leave you, I would h[C]ave to kill you dead
Caug F Caug F
I can't be good no more, once, like I did before
I can't be good b[G]aby
[C]Honey, because the world go[G]ne wr[C]ong
 
 e|-0-1--3--1------0---0-0----------------------------------------------------|
 B|-0-0--3--0--4---1---0h1----------------------------------------------------|
 G|------------4---0---0h0----------------------------------------------------|
 D|----------------2---0h2----------------------------------------------------|
 A|----------------3----------------------------------------------------------|
 E|---------------------------------------------------------------------------|

[C/F]I tried to be lovin', [C]and treat yo[C/F]u kind[C]
[C/F]But it seem like you never right[C], you got no loyal mind
Caug F Caug F
I can't be good no more, once, like I did before
I can't be good ba[G]by
[C]Honey, because the world go[G]ne wr[C]ong
 
 e|-0-1--3--1------0---0-0----------------------------------------------------|
 B|-0-0--3--0--4---1---0h1----------------------------------------------------|
 G|------------4---0---0h0----------------------------------------------------|
 D|----------------2---0h2----------------------------------------------------|
 A|----------------3----------------------------------------------------------|
 E|---------------------------------------------------------------------------|

[C/F]If you had a woman and[C] she don't t[C/F]reat you[C] kind
[C/F]Praise the Good Lord to get her [C]out of your mind
Caug F Caug F
I can't be good no more, once, like I did before
I can't be good ba[G]by
[C]Honey, because the world go[G]ne wr[C]ong
 
 e|-0-1--3--1------0---0-0----------------------------------------------------|
 B|-0-0--3--0--4---1---0h1----------------------------------------------------|
 G|------------4---0---0h0----------------------------------------------------|
 D|----------------2---0h2----------------------------------------------------|
 A|----------------3----------------------------------------------------------|
 E|---------------------------------------------------------------------------|

[C/F]Said, when you been go[C]od now, can'[C/F]t do no [C]more
[C/F]Just tell her kindly, "There is [C]the front door"
Caug F Caug F
I can't be good no more, once, like I did before
I can't be good ba[G]by
[C]Honey, because the world go[G]ne wr[C]ong
 
 e|-0-1--3--1------0---0-0----------------------------------------------------|
 B|-0-0--3--0--4---1---0h1----------------------------------------------------|
 G|------------4---0---0h0----------------------------------------------------|
 D|----------------2---0h2----------------------------------------------------|
 A|----------------3----------------------------------------------------------|
 E|---------------------------------------------------------------------------|

[C/F]Pack up my suitcase, g[C]ive me my ha[C/F]t[C]
[C/F]No use to ask me baby, cause I'l[C]l never be back
Caug F Caug F
I can't be good no more, once, like I did before
I can't be good ba[G]by.
[C]Honey, because the world go[G]ne wr[C]ong.

Important: The song above is NOT stored on the Chordie server. The original song is hosted at www.azchords.com. Chordie works as a search engine and provides on-the-fly formatting. Chordie does not index songs against artists'/composers' will. To remove this song please click here.

Text color:
Chord color:
Chord grids: 
Font size:    
Page size: 

C C/F G
Rate #1 of 6 versions

Login - add to songbook

SHARE PAGE  




You need to log in to post comments