Guitar Tabs, Chords and Lyrics
Server problems seems to be fixed. Chordie has been experiencing problems with songs disappearing. These issues now seems to be fixed, but still verifying the fix. If you find anything strange, please email admin@chordie.com.


2113   Bowling for Soup

 
 e|--------------------------------------------------------------------------------------------------------|
 B|--------------------------------------------------------------------------------------------------------|
 G|-14-14-14-14-14-14-14-14/16/18\16-16-16-16-16-16-16-16/19-19-19\18-18-18\14-14/16-16-16-16-16/18-18\16--|
 D|--------------------------------------------------------------------------------------------------------|
 A|-12-12-12-12-12-12-12-12/14/16\14-14-14-14-14-14-14-14/17-17-17\16-16-16\12-12/14-14-14-14-14/16-16\14--|
 E|--------------------------------------------------------------------------------------------------------|

 


 x2


 

 
 e|--------------------------------------------------------------------------------------------------------|
 B|--------------------------------------------------------------------------------------------------------|
 G|-16/19-19-19\18-18-18\16-16-16/19\18\14-14--------------------------------------------------------------|
 D|--------------------------------------------------------------------------------------------------------|
 A|-14/17-17-17\16-16-16\14-14-14/17\16\12-12--------------------------------------------------------------|
 E|--------------------------------------------------------------------------------------------------------|

 


 


 


 (Guitar 2)


 

 
 e|--------------------------------------------------------------------------------------------------------|
 B|--------------------------------------------------------------------------------------------------------|
 G|-2-2-2-2-2-2-2-2-2-2-2-2--4/6\4-4-4-4-4-4-4-4/7-7-7\6-6-6-2-2-4-4-4-4-4/6-6\4-4-4-4-4/7-7-7\6-6-6\4-4-4-|
 D|-2-2-2-2-2-2-2-2-2-2-2-2--4/6\4-4-4-4-4-4-4-4/7-7-7\6-6-6-2-2-4-4-4-4-4/6-6\4-4-4-4-4/7-7-7\6-6-6\4-4-4-|
 A|-0-0-0-0-0-0-0-0-0-0-0-0--2/4\2-2-2-2-2-2-2-2/5-5-5\4-4-4-0-0-2-2-2-2-2/4-4\2-2-2-2-2/5-5-5\4-4-4\2-2-2-|
 E|--------------------------------------------------------------------------------------------------------|

 


 x2


 

 
 e|--------------------------------------------------------------------------------------------------------|
 B|--------------------------------------------------------------------------------------------------------|
 G|-7\6\2-2------------------------------------------------------------------------------------------------|
 D|-7\6\2-2------------------------------------------------------------------------------------------------|
 A|-5\4\0-0------------------------------------------------------------------------------------------------|
 E|--------------------------------------------------------------------------------------------------------|

 


 


 


 [Verse 1] 


 Had to kiss you one more time, so I followed you home, and I almost lost you at the light...


 

 
 e|--------------------------------------------------------------------------------------------------------|
 B|--------------------------------------------------------------------------------------------------------|
 G|--------------------------------------------------------------------------------------------------------|
 D|--------------------------------------------------------------------------------------------------------|
 A|---------------------------------------------------------------------------5~---------------------------|
 E|--------------------------------------------------------------------------------------------------------|

 


 


 I've seen you a couple of times, but I had no idea, that you would be mine tonight...


 

 
 e|--------------------------------------------------------------------------------------------------------|
 B|--------------------------------------------------------------------------------------------------------|
 G|--------------------------------------------------------------------------------------------------------|
 D|--------------------------------------------------------------------------------------------------------|
 A|-0~-------------------------------7~--------------2~---------------------5~-----------------------------|
 E|--------------------------------------------------------------------------------------------------------|

 


 


 


 [Pre-Cborus] 


 I was to meet another girl, but she didn't show And you asked if I was


 

 
 e|--------------------------------------------------------------------------------------------------------|
 B|--------------------------------------------------------------------------------------------------------|
 G|-2-2-2-2-2-2-2-2-2-2-2-2-2-2-2-2-9-9-9-9-9-9-9-9-9-9-9-9-9-9-9-4-4-4-4-4-4-4-4-4-4-4-4-4-4-4-4-7-7-7-7--|
 D|-2-2-2-2-2-2-2-2-2-2-2-2-2-2-2-2-9-9-9-9-9-9-9-9-9-9-9-9-9-9-9-4-4-4-4-4-4-4-4-4-4-4-4-4-4-4-4-7-7-7-7--|
 A|-0-0-0-0-0-0-0-0-0-0-0-0-0-0-0-0-7-7-7-7-7-7-7-7-7-7-7-7-7-7-7-2-2-2-2-2-2-2-2-2-2-2-2-2-2-2-2-5-5-5-5--|
 E|--------------------------------------------------------------------------------------------------------|

 


 x2


 alone, oh


 

 
 e|--------------------------------------------------------------------------------------------------------|
 B|--------------------------------------------------------------------------------------------------------|
 G|-7-7-7-7-7-7-7-7-7-7-7-7--------------------------------------------------------------------------------|
 D|-7-7-7-7-7-7-7-7-7-7-7-7--------------------------------------------------------------------------------|
 A|-5-5-5-5-5-5-5-5-5-5-5-5--------------------------------------------------------------------------------|
 E|--------------------------------------------------------------------------------------------------------|

 


 


 


 [Cborus] 


 (Guitar 1)


 I'm just a boy, I'm on the side, Yeah, believe me, I don't mind


 

 
 e|--------------------------------------------------------------------------------------------------------|
 B|--------------------------------------------------------------------------------------------------------|
 G|-2----2----2----2----6----6----6----6----4----4----4----4----2--2--------9-9-9-9-7-7--------------------|
 D|-2----2----2----2----6----6----6----6----4----4----4----4----2--2--------9-9-9-9-7-7--------------------| x2
 A|-0----0----0----0----4----4----4----4----2----2----2----2----0--0--------7-7-7-7-5-5--------------------|
 E|--------------------------------------------------------------------------------------------------------|

 


 


 (Guitar 2)


 

 
 e|--------------------------------------------------------------------------------------------------------|
 B|--------------------------------------------------------------------------------------------------------|
 G|--7----11--9---9----9----9/14----11-11-11-11-9-9--------------------------------------------------------|
 D|--------------------------------------------------------------------------------------------------------| x2
 A|--------------------------------------------------------------------------------------------------------|
 E|--------------------------------------------------------------------------------------------------------|

 


 


 


 [Fill] 


 (Guitar 1)


 

 
 e|--------------------------------------------------------------------------------------------------------|
 B|--------------------------------------------------------------------------------------------------------|
 G|-14-14-14-14-14-14-14-14/16/18\16-16-16-16-16-16-16-16/19-19-19\18-18-18\14-14/16-16-16-16-16/18-18\16--|
 D|--------------------------------------------------------------------------------------------------------|
 A|-12-12-12-12-12-12-12-12/14/16\14-14-14-14-14-14-14-14/17-17-17\16-16-16\12-12/14-14-14-14-14/16-16\14--|
 E|--------------------------------------------------------------------------------------------------------|

 


 x2


 

 
 e|--------------------------------------------------------------------------------------------------------|
 B|--------------------------------------------------------------------------------------------------------|
 G|-16/19-19-19\18-18-18\16-16-16/19\18\14-14--------------------------------------------------------------|
 D|--------------------------------------------------------------------------------------------------------|
 A|-14/17-17-17\16-16-16\14-14-14/17\16\12-12--------------------------------------------------------------|
 E|--------------------------------------------------------------------------------------------------------|

 


 


 


 (Guitar 2)


 

 
 e|--------------------------------------------------------------------------------------------------------|
 B|--------------------------------------------------------------------------------------------------------|
 G|-2-2-2-2-2-2-2-2-2-2-2-2--4/6\4-4-4-4-4-4-4-4/7-7-7\6-6-6-2-2-4-4-4-4-4/6-6\4-4-4-4-4/7-7-7\6-6-6\4-4-4-|
 D|-2-2-2-2-2-2-2-2-2-2-2-2--4/6\4-4-4-4-4-4-4-4/7-7-7\6-6-6-2-2-4-4-4-4-4/6-6\4-4-4-4-4/7-7-7\6-6-6\4-4-4-|
 A|-0-0-0-0-0-0-0-0-0-0-0-0--2/4\2-2-2-2-2-2-2-2/5-5-5\4-4-4-0-0-2-2-2-2-2/4-4\2-2-2-2-2/5-5-5\4-4-4\2-2-2-|
 E|--------------------------------------------------------------------------------------------------------|

 


 x2


 

 
 e|--------------------------------------------------------------------------------------------------------|
 B|--------------------------------------------------------------------------------------------------------|
 G|-7\6\2-2------------------------------------------------------------------------------------------------|
 D|-7\6\2-2------------------------------------------------------------------------------------------------|
 A|-5\4\0-0------------------------------------------------------------------------------------------------|
 E|--------------------------------------------------------------------------------------------------------|

 


 


 


 [Verse 2 - Electric Clean]:


 Yeah you asked if you could call, but you didn't write it down, so I thought that


 

 
 e|--------------------------------------------------------------------------------------------------------|
 B|--------------------------------------------------------------------------------------------------------|
 G|-2--------2--------2--------2--------9--------9--------9--------9--------4--------4--------4--------4---|
 D|-2--------2--------2--------2--------9--------9--------9--------9--------4--------4--------4--------4---|
 A|-0--------0--------0--------0--------7--------7--------7--------7--------2--------2--------2--------2---|
 E|--------------------------------------------------------------------------------------------------------|

 


 


 We were through


 

 
 e|--------------------------------------------------------------------------------------------------------|
 B|--------------------------------------------------------------------------------------------------------|
 G|-7--------7--------7--------7---------------------------------------------------------------------------|
 D|-7--------7--------7--------7---------------------------------------------------------------------------|
 A|-5--------5--------5--------5---------------------------------------------------------------------------|
 E|--------------------------------------------------------------------------------------------------------|

 


 


 But when you said hello, I could not believe, that I got a call from you


 

 
 e|--------------------------------------------------------------------------------------------------------|
 B|--------------------------------------------------------------------------------------------------------|
 G|-2-2-2-2-2-2-2-2-9-9-9-9-9-9-9-9-4-4-4-4-4-4-4-4-7-7-7-7-7-7-7-7----------------------------------------|
 D|-2-2-2-2-2-2-2-2-9-9-9-9-9-9-9-9-4-4-4-4-4-4-4-4-7-7-7-7-7-7-7-7----------------------------------------|
 A|-0-0-0-0-0-0-0-0-7-7-7-7-7-7-7-7-2-2-2-2-2-2-2-2-5-5-5-5-5-5-5-5----------------------------------------|
 E|--------------------------------------------------------------------------------------------------------|

 


 


 


 [Pre-Cborus] 


 It's like candy in a bag, You can put it on a shelf It's there when you need


 

 
 e|--------------------------------------------------------------------------------------------------------|
 B|--------------------------------------------------------------------------------------------------------|
 G|-2-2-2-2-2-2-2-2-2-2-2-2-2-2-2-2-9-9-9-9-9-9-9-9-9-9-9-9-9-9-9-4-4-4-4-4-4-4-4-4-4-4-4-4-4-4-4-7-7-7-7--|
 D|-2-2-2-2-2-2-2-2-2-2-2-2-2-2-2-2-9-9-9-9-9-9-9-9-9-9-9-9-9-9-9-4-4-4-4-4-4-4-4-4-4-4-4-4-4-4-4-7-7-7-7--|
 A|-0-0-0-0-0-0-0-0-0-0-0-0-0-0-0-0-7-7-7-7-7-7-7-7-7-7-7-7-7-7-7-2-2-2-2-2-2-2-2-2-2-2-2-2-2-2-2-5-5-5-5--|
 E|--------------------------------------------------------------------------------------------------------|

 


 A taste, oh


 

 
 e|--------------------------------------------------------------------------------------------------------|
 B|--------------------------------------------------------------------------------------------------------|
 G|-7-7-7-7-7-7-7-7-7-7-7-7--------------------------------------------------------------------------------|
 D|-7-7-7-7-7-7-7-7-7-7-7-7--------------------------------------------------------------------------------|
 A|-5-5-5-5-5-5-5-5-5-5-5-5--------------------------------------------------------------------------------|
 E|--------------------------------------------------------------------------------------------------------|

 


 


 


 [Cborus] 


 (Guitar 1)


 I'm just a boy, I'm on the side, Yeah, believe me, I don't mind


 

 
 e|--------------------------------------------------------------------------------------------------------|
 B|--------------------------------------------------------------------------------------------------------|
 G|-2----2----2----2----6----6----6----6----4----4----4----4----2--2--------9-9-9-9-7-7--------------------|
 D|-2----2----2----2----6----6----6----6----4----4----4----4----2--2--------9-9-9-9-7-7--------------------| x2
 A|-0----0----0----0----4----4----4----4----2----2----2----2----0--0--------7-7-7-7-5-5--------------------|
 E|--------------------------------------------------------------------------------------------------------|

 


 


 (Guitar 2)


 

 
 e|--------------------------------------------------------------------------------------------------------|
 B|--------------------------------------------------------------------------------------------------------|
 G|--7----11--9---9----9----9/14----11-11-11-11-9-9--------------------------------------------------------|
 D|--------------------------------------------------------------------------------------------------------| x2
 A|--------------------------------------------------------------------------------------------------------|
 E|--------------------------------------------------------------------------------------------------------|

 


 


 


 [Bridge*] 


 I'm not sure where I stand, call me when you're lonely, and I'll take you out again


 

 
 e|--------------------------------------------------------------------------------------------------------|
 B|--------------------------------------------------------------------------------------------------------|
 G|----------------------4-4-4-4-4-4-4-4-4-4-4-4-4-4-4-4/6-6-6-6-6-6-6-6-6-6-6-6-6-6-6-6/7-7-7-7-7-7-7-7-7-|
 D|----------------------4-4-4-4-4-4-4-4-4-4-4-4-4-4-4-4/6-6-6-6-6-6-6-6-6-6-6-6-6-6-6-6/7-7-7-7-7-7-7-7-7-|
 A|----------------------2-2-2-2-2-2-2-2-2-2-2-2-2-2-2-2/4-4-4-4-4-4-4-4-4-4-4-4-4-4-4-4/5-5-5-5-5-5-5-5-5-|
 E|--------------------------------------------------------------------------------------------------------|

 


 


 Yeah


 

 
 e|--------------------------------------------------------------------------------------------------------|
 B|--------------------------------------------------------------------------------------------------------|
 G|-7-7-7-7-7-7-7------------------------------------------------------------------------------------------|
 D|-7-7-7-7-7-7-7------------------------------------------------------------------------------------------|
 A|-5-5-5-5-5-5-5------------------------------------------------------------------------------------------|
 E|--------------------------------------------------------------------------------------------------------|

 


 


 I hear you got another guy I guess he makes you happy Call me a special


 

 
 e|--------------------------------------------------------------------------------------------------------|
 B|--------------------------------------------------------------------------------------------------------|
 G|----------------------------------4-4-4-4-4-4-4-4-4-4-4-4-4-4-4-4/6-6-6-6-6-6-6-6-6-6-6-6-6-6-6-6/7-7-7-|
 D|-7-7-7-7-7-7-7\4-4-4-4-4-4-4-4----4-4-4-4-4-4-4-4-4-4-4-4-4-4-4-4/6-6-6-6-6-6-6-6-6-6-6-6-6-6-6-6/7-7-7-|
 A|-7-7-7-7-7-7-7\4-4-4-4-4-4-4-4----2-2-2-2-2-2-2-2-2-2-2-2-2-2-2-2/4-4-4-4-4-4-4-4-4-4-4-4-4-4-4-4/5-5-5-|
 E|-5-5-5-5-5-5-5\2-2-2-2-2-2-2-2--------------------------------------------------------------------------|

 


 . . . . . . . . . . . . . .


 


 friend


 

 
 e|--------------------------------------------------------------------------------------------------------|
 B|--------------------------------------------------------------------------------------------------------|
 G|-7-7-7-7-7-7-7-7-7-7-7-7-7------------------------------------------------------------------------------|
 D|-7-7-7-7-7-7-7-7-7-7-7-7-7------------------------------------------------------------------------------|
 A|-5-5-5-5-5-5-5-5-5-5-5-5-5------------------------------------------------------------------------------|
 E|--------------------------------------------------------------------------------------------------------|

 


 


 


 [Cborus] 


 I'm just a boy I'm on the side Yeah, believe me, I don't mind


 

 
 e|--------------------------------------------------------------------------------------------------------|
 B|--------------------------------------------------------------------------------------------------------|
 G|---------------------------------------------------9--9--9--9--9--9--9--9-------------------------------|
 D|-4--4--4--4--4--4--4--4-/-7--7--7--7--7--7--7--7-/-9--9--9--9--9--9--9--9--9--9--9--9--9--9--9--9-------|
 A|-4--4--4--4--4--4--4--4-/-7--7--7--7--7--7--7--7-/-7--7--7--7--7--7--7--7--9--9--9--9--9--9--9--9-------|
 E|-2--2--2--2--2--2--2--2-/-5--5--5--5--5--5--5--5-/-------------------------7--7--7--7--7--7--7--7-------|

 


 


 I'm just a boy Not quite your type


 

 
 e|-----------------------------------------------5-4-5-7-5-4-5--------------------------------------------|
 B|-------------------------------------------------------------7------------------------------------------|
 G|-----------------------------------------9--9-----------------------------------------------------------|
 D|-4--4----------------7--7----------------9--9-----------------------------------------------------------|
 A|-4--4----------------7--7----------------7--7-----------------------------------------------------------|
 E|-2--2----------------5--5-------------------------------------------------------------------------------|

 


 


 I'm just a boy Not quite your type And that don't matter much


 

 
 e|--------------------------------------------------------------------------------------------------------|
 B|--------------------------------------------------------------------------------------------------------|
 G|-----------------------------------------------------------------9-9-9-9-9-9-9-9-9-9-9-9-9-9-9-9--------|
 D|-4-4-4-4-4-4-4-4-4-4-4-4-4-4-4-4-7-7-7-7-7-7-7-7-7-7-7-7-7-7-7-7-9-9-9-9-9-9-9-9-9-9-9-9-9-9-9-9-9-9-9--|
 A|-4-4-4-4-4-4-4-4-4-4-4-4-4-4-4-4-7-7-7-7-7-7-7-7-7-7-7-7-7-7-7-7-7-7-7-7-7-7-7-7-7-7-7-7-7-7-7-7-9-9-9--|
 E|-2-2-2-2-2-2-2-2-2-2-2-2-2-2-2-2-5-5-5-5-5-5-5-5-5-5-5-5-5-5-5-5---------------------------------7-7-7--|

 


 


 tonight


 

 
 e|--------------------------------------------------------------------------------------------------------|
 B|--------------------------------------------------------------------------------------------------------|
 G|--------------------------------------------------------------------------------------------------------|
 D|-9-9-9-9-9-9-9-9-9-9-9-9-9------------------------------------------------------------------------------|
 A|-9-9-9-9-9-9-9-9-9-9-9-9-9------------------------------------------------------------------------------|
 E|-7-7-7-7-7-7-7-7-7-7-7-7-7------------------------------------------------------------------------------|

 


 


 


 [Outro] 


 (Guitar 1)


 

 
 e|--------------------------------------------------------------------------------------------------------|
 B|-10---7---2---5------------------------------------------------------------------------------------------|
 G|--------------------------------------------------------------------------------------------------------|
 D|--------------------------------------------------------------------------------------------------------| x8
 A|--------------------------------------------------------------------------------------------------------|
 E|--------------------------------------------------------------------------------------------------------|

 


 


 


 (Guitar 2)


 

 
 e|--------------------------------------------------------------------------------------------------------|
 B|--------------------------------------------------------------------------------------------------------|
 G|-----------------------------------------------------------------9-9-9-9-9-9-9-9-9-9-9-9-9-9-9-9--------|
 D|-4-4-4-4-4-4-4-4-4-4-4-4-4-4-4-4-7-7-7-7-7-7-7-7-7-7-7-7-7-7-7-7-9-9-9-9-9-9-9-9-9-9-9-9-9-9-9-9--------| x2
 A|-4-4-4-4-4-4-4-4-4-4-4-4-4-4-4-4-7-7-7-7-7-7-7-7-7-7-7-7-7-7-7-7-7-7-7-7-7-7-7-7-7-7-7-7-7-7-7-7--------|
 E|-2-2-2-2-2-2-2-2-2-2-2-2-2-2-2-2-5-5-5-5-5-5-5-5-5-5-5-5-5-5-5-5----------------------------------------|

 


 


 


 (Both)


 

 
 e|--------------------------------------------------------------------------------------------------------|
 B|--------------------------------------------------------------------------------------------------------|
 G|-7-\-6-/-7-\-4-/-7-\-6----------------------------------------------------------------------------------|
 D|-7-\-6-/-7-\-4-/-7-\-6----------------------------------------------------------------------------------|
 A|-5-\-4-/-5-\-2-/-5-\-4----------------------------------------------------------------------------------|
 E|--------------------------------------------------------------------------------------------------------|

 


 


 (Both - Play at very end)


 

 
 e|--------------------------------------------------------------------------------------------------------|
 B|--------------------------------------------------------------------------------------------------------|
 G|-7-\-6-/-7-\-4-/-7-\-6----7-\-6-/-7-\-4-/-7-\-6-/-7-\-6-/-7-\-4-/-7-\-2--------2-2----------------------|
 D|-7-\-6-/-7-\-4-/-7-\-6----7-\-6-/-7-\-4-/-7-\-6-/-7-\-6-/-7-\-4-/-7-\-2--------2-2----------------------|
 A|-5-\-4-/-5-\-2-/-5-\-4----5-\-4-/-5-\-2-/-5-\-4-/-5-\-4-/-5-\-2-/-5-\-0--------0-0----------------------|
 E|--------------------------------------------------------------------------------------------------------| 


Important: The song above is NOT stored on the Chordie server. The original song is hosted at www.azchords.com. Chordie works as a search engine and provides on-the-fly formatting. Chordie does not index songs against artists'/composers' will. To remove this song please click here.

This song is displayed as text-only. Transposing and tuning is only available for chordpro-songs.
Rate #1 of 1 versions

Jango Player

Login - add to songbook

SHARE PAGE  



You need to log in to post comments