Guitar Tabs, Chords and Lyrics
Server problems seems to be fixed. Chordie has been experiencing problems with songs disappearing. These issues now seems to be fixed, but still verifying the fix. If you find anything strange, please email admin@chordie.com.


BFFF  Bowling for Soup

[BFFF]  
[G5] [B5] [C5] [D5] [G5] [B5] [C5] [D5]  
 
 e----------------------------------------------------------------
 B----------------------------------------------------------------
 G-------------4--5-5-x-5-5--7---------------4--5-5-x--5-5--7-----
 D--5-5-x-5-5--4--5-5-x-5-5--7----5-5-x-5-5--4--5-5-x--5-5--7-----
 A--5-5-x-5-5--2--3-3-x-3-3--5----5-5-x-5-5--2--3-3-x--3-3--5-----
 E--3-3-x-3-3---------------------3-3-x-3-3-----------------------

[G5] [B5] [C5] [D5] [G5] [B5] [C5] [D5]  
 
 e----------------------------------------------------------------
 B----------------------------------------------------------------
 G-------------4--5-5-x-5-5--7---------------4--5-5-x--5-5--7-----
 D--5-5-x-5-5--4--5-5-x-5-5--7----5-5-x-5-5--4--5-5-x--5-5--7-----
 A--5-5-x-5-5--2--3-3-x-3-3--5----5-5-x-5-5--2--3-3-x--3-3--5-----
 E--3-3-x-3-3---------------------3-3-x-3-3-----------------------

You are my [G5]best friend in the wor[C5]ld
[G5]And I hope that you [C5]know,
[G5]when we hangout [C5]together,
it's [G5]freakin' [C5]awesome
[G5]Playing poker Friday [C5]night,
Beer-o-mids and [D5]golf cart races
[G5]You think that my sister's hot
[C5]I accidentally [D5]shot your finger
[G5]off your writing hand oh well,
[C5]you get dis[D5]ability
[G5]I broke my leg you laughed so hard
and [C5]told my ambulance to stop at the bar
[G5] [B5] [C5] [D5] [G5] [B5] [C5] [D5]  
 
 e----------------------------------------------------------------
 B----------------------------------------------------------------
 G-------------4--5-5-x-5-5--7---------------4--5-5-x--5-5--7-----
 D--5-5-x-5-5--4--5-5-x-5-5--7----5-5-x-5-5--4--5-5-x--5-5--7-----
 A--5-5-x-5-5--2--3-3-x-3-3--5----5-5-x-5-5--2--3-3-x--3-3--5-----
 E--3-3-x-3-3---------------------3-3-x-3-3-----------------------

[C5]You'll tell the world I'm [D5]gay when you hear me say
[G5]that I really and [E5]truly feel this way
[C5]not that there's anything [D5]wrong with being [G5]gay[E5]
[G5]Oooh ooh ooh
[C5]And sometimes we [D5]punch each other in the [G5]face
like when I hit on your [E5]mom and got to second base
[C5]I'm trying to say I [D5]love you in a heterosexual way
[G5] [B5] [C5] [D5] [G5] [B5] [C5] [D5]  
 
 e----------------------------------------------------------------
 B----------------------------------------------------------------
 G-------------4--5-5-x-5-5--7---------------4--5-5-x--5-5--7-----
 D--5-5-x-5-5--4--5-5-x-5-5--7----5-5-x-5-5--4--5-5-x--5-5--7-----
 A--5-5-x-5-5--2--3-3-x-3-3--5----5-5-x-5-5--2--3-3-x--3-3--5-----
 E--3-3-x-3-3---------------------3-3-x-3-3-----------------------

We fart and [G5]burp in the same [C5]key,
and I [G5]think your iPod [C5]sucks
You make [G5]fun of my hair because [C5]yours is.. disap[G5]pearing[C5]
I've [G5]seen your penis you've seen mine
I [C5]popped your pimples
[D5]you rubbed aloe [G5]vera on my sunburned back
[C5]You ran defence when [D5]I sh*t my pants
[G5]you felt my girls' brand new boobs
[C5]you asked to suck them [D5]she refused
[G5]so while you slept I shaved your head
[C5]you woke up and [D5]told me that I...
[C5]You'll tell the world I'm [D5]gay when you hear me say
[G5]that I really and [E5]truly feel this way
[C5]not that there's anything [D5]wrong with being [G5]gay
[C5]And sometimes we [D5]punch each other in the face
[G5]like when I hit on your [E5]mom and got to second [C5]base
I know you know I [D5]love you (I f**kin love you dude
[C5]I'm trying to say I [D5]love you in a heterosexual way
[G5] [B5] [C5] [D5] [G5] [B5] [C5] [D5]  
 
 e----------------------------------------------------------------
 B----------------------------------------------------------------
 G-------------4--5-5-x-5-5--7---------------4--5-5-x--5-5--7-----
 D--5-5-x-5-5--4--5-5-x-5-5--7----5-5-x-5-5--4--5-5-x--5-5--7-----
 A--5-5-x-5-5--2--3-3-x-3-3--5----5-5-x-5-5--2--3-3-x--3-3--5-----
 E--3-3-x-3-3---------------------3-3-x-3-3-----------------------

[G5]Na na na na, [C5]Na na na na, [G5]Na na na na, [C5]Na na na na
[G5]Na na na na, [C5]Na na na na, [G5]Na na na na, [C5]Na na na na
[C5]You'll tell the world I'm [D5]gay when you hear me say
[G5]that I really and [E5]truly feel this way
[C5]not that there's anything [D5]wrong with being [G5]gay
[C5]And sometimes we [D5]punch each other in the face
[G5]like when I hit on your [E5]mom and got to second [C5]base
[C5]I'm trying to say I [D5]love you in a heterosexual way
[G5] [B5] [C5] [D5] [G5] [B5] [C5] [D5]  
 
 e----------------------------------------------------------------
 B----------------------------------------------------------------
 G-------------4--5-5-x-5-5--7---------------4--5-5-x--5-5--7-----
 D--5-5-x-5-5--4--5-5-x-5-5--7----5-5-x-5-5--4--5-5-x--5-5--7-----
 A--5-5-x-5-5--2--3-3-x-3-3--5----5-5-x-5-5--2--3-3-x--3-3--5-----
 E--3-3-x-3-3---------------------3-3-x-3-3-----------------------

Na na na na, Na na na na Na na na na, Na na na na
[G5] [B5] [C5] [D5] [G5] [B5] [C5] [D5]  
 
 e----------------------------------------------------------------
 B----------------------------------------------------------------
 G-------------4--5-5-x-5-5--7---------------4--5-5-x--5-5--7-----
 D--5-5-x-5-5--4--5-5-x-5-5--7----5-5-x-5-5--4--5-5-x--5-5--7-----
 A--5-5-x-5-5--2--3-3-x-3-3--5----5-5-x-5-5--2--3-3-x--3-3--5-----
 E--3-3-x-3-3---------------------3-3-x-3-3-----------------------

Na na na na, Na na na na Na na na na, Na na na na

Important: The song above is NOT stored on the Chordie server. The original song is hosted at www.azchords.com. Chordie works as a search engine and provides on-the-fly formatting. Chordie does not index songs against artists'/composers' will. To remove this song please click here.

Text color:
Chord color:
Chord grids: 
Font size:    
Page size: 

B5 C5 D5 E5 G5
Rate #1 of 4 versions

Jango Player

Login - add to songbook

SHARE PAGE  




You need to log in to post comments