Guitar Tabs, Chords and Lyrics
Major upgrade!! After one year development the new version of Chordie is now online! Please give feedback.


Epiphany  Bowling for Soup

 
 E|--------7----------------------------7----------------------|
 B|--9-7-9---9-7-9---10-9-7-9-----9-7-9---9-7-9---10-9-7-------|
 G|----------------9----------9-----------------9--------8-9---|
 D|------------------------------------------------------------|
 A|------------------------------------------------------------|
 E|------------------------------------------------------------|

E, B, A, B E, B, A, B
[E]STOP BEFORE YOU GET ME STARTED
[A]MAYBE I'LL JUST GO
[E]I'M NOT EXACTLY BROKEN HEARTED
BUT [A]I THINK YOU ALREADY [E]KNOW
THAT THERE'S [B]MORE TO THE STORY THAN I'M GIVING UP
[A]MAYBE I SHOULD JUST GROW UP
[E]THERE'S A PICTURE OF A [B]GIRL SOMEWHERE
THAT [A]FITS THIS EMPTY [B]FRAME
AND [E]THERE'S A SONG HERE [B]SOMEWHERE
WITH A [A]HAPPIER [B]REFRAIN
[A]IT CAME TO ME
I THINK THEY CALL IT AN E[B]PIPHANY
AND [E]THAT'S A BIG WORD
[E]ALL I EVER [B]WANTED WAS A [A]LITTLE EXTRA [B]ORDINARY
[E]SOMEWHAT DOCU[B]MENTED, AND [A]DEPICTED IN THIS [B]BOOK OF MEMORIES
[A]THAT'S AS EMPTY AS A [B]BROKEN GLASS
OR GAS TANK IN MY [A]CAR
IF YOU CAN HEAR ME NOW
B E, B, A, B
COME OUT, COME OUT, WHEREVER YOU ARE
E, B, A, B
WHEREVER YOU ARE
 
 E|--------7----------------------------7----------------------|
 B|--9-7-9---9-7-9---10-9-7-9-----9-7-9---9-7-9---10-9-7-------|
 G|----------------9----------9-----------------9--------8-9---|
 D|------------------------------------------------------------|
 A|------------------------------------------------------------|
 E|------------------------------------------------------------|

[E]I TRY SO HARD NOT TO REMEMBER
[A]WISH I COULD FORGET
[E]THOUGHTS OF YOU IN SYNDICATION
[A]JUST LIKE THAT TIME I MET JOAN [E]JETT
AT A [B]GRAMMY PARTY ON A SATURDAY NIGHT
AFTER [A]YOU AND ME HAD A BIG FIGHT
[E]THERE'S A PICTURE OF A [B]BOY SOMEWHERE
THAT [A]FITS YOUR EMPTY [B]FRAME
[E]I TRY SWITCHING THE [B]STATIONS
BUT THE [A]SONG REMAINS THE [B]SAME
[A]IT CAME TO ME
I THINK THEY CALL IT AN E[B]PIPHANY
AND [E]THAT'S A BIG WORD
[E]ALL I EVER [B]WANTED WAS A [A]LITTLE EXTRA [B]ORDINARY
[E]SOMEWHAT DOCU[B]MENTED, AND [A]DEPICTED IN THIS [B]BOOK OF MEMORIES
THAT'S AS [A]EM[A]PTY AS A [B]BROKEN [B]GLASS
OR GAS TANK IN MY [A]CAR
IF YOU CAN HEAR ME NOW
B E, B, A, B
COME OUT, COME OUT, WHEREVER YOU ARE
 
 E|--------7----------------------------|
 B|--9-7-9---9-7-9---10-9-7-9-----------|
 G|----------------9----------9---------|
 D|-------------------------------------|
 A|-------------------------------------|
 E|-------------------------------------|

[F#]ARE YOU STILL AT HOME
[E]OR DID YOU GO TO ROME
[A]I SWEAR I THINK I SAW YOU
ON SOME [B]ITALIAN MOVIE
[F#]SHOWING ON THE PLANE
[E]I COULDN'T READ YOUR NAME
[A]SUBTITLES DON'T WORK UNDER CREDITS
[B]MAN THAT'S A SHAME
AND IT'S A [A]SHAME ABOUT ME AND [E]YOU, NO ONE TO [A]BLAME BUT [E]YOU
[E]ALL I EVER [B]WANTED WAS A [A]LITTLE EXTRA [B]ORDINARY
[E]SOMEWHAT DOCU[B]MENTED, AND [A]DEPICTED IN THIS [B]BOOK OF MEMORIES
E,E B,B A B
ALL I EVER WANTED WAS A LITTLE EXTRA ORDINARY
[E]SOMEWHAT DOCU[B]MENTED, AND [A]DEPICTED IN THIS [B]BOOK OF MEMORIES
[A]IF YOU CAN HEAR ME NOW, [B]IF YOU CAN HEAR HIM NOW
[A]IF YOU CAN HEAR ME NOW
B E, B, A, B
COME OUT, COME OUT, WHEREVER YOU ARE
E, B, A, B
WHEREVER YOU ARE
 
 E|--------7----------------------------7----------------------|
 B|--9-7-9---9-7-9---10-9-7-9-----9-7-9---9-7-9---10-9-7-------|
 G|----------------9----------9-----------------9--------8-9---|
 D|------------------------------------------------------------|
 A|------------------------------------------------------------|
 E|------------------------------------------------------------|
 E|--------7----------------------------7----------------------|
 B|--9-7-9---9-7-9---10-9-7-9-----9-7-9---9-7-9---10-9-7-------|
 G|----------------9----------9-----------------9--------8-9---|
 D|------------------------------------------------------------|
 A|------------------------------------------------------------|
 E|------------------------------------------------------------|
 E|--------7----------------------------7----------------------|
 B|--9-7-9---9-7-9---10-9-7-9-----9-7-9---9-7-9---10-9-7-------|
 G|----------------9----------9-----------------9--------8-9---|
 D|------------------------------------------------------------|
 A|------------------------------------------------------------|
 E|------------------------------------------------------------|
 E|-----------------------------------|
 B|-----------------------------------|
 G|-----------------------------------|
 D|--7-7-7-6--7-7-7-6--7-7-7-6--7-9---|
 A|--7-7-7-6--7-7-7-6--7-7-7-6--7-9---|
 E|--5-5-5-4--5-5-5-4--5-5-5-4--5-7---|


Important: The song above is NOT stored on the Chordie server. The original song is hosted at www.azchords.com. Chordie works as a search engine and provides on-the-fly formatting. Chordie does not index songs against artists'/composers' will. To remove this song please click here.

Text color:
Chord color:
Chord grids: 
Font size:    
Page size: 

A B E F#
Rate #1 of 1 versions

Jango Player

Login - add to songbook

SHARE PAGE  



You need to log in to post comments