Guitar Tabs, Chords and Lyrics
Server problems seems to be fixed. Chordie has been experiencing problems with songs disappearing. These issues now seems to be fixed, but still verifying the fix. If you find anything strange, please email admin@chordie.com.


Me With No You  Bowling for Soup

Awesome song from BFS's new album ;)
Enjoy;)
h - hammer on
/ - slide down
~ - vibrato
. - let ring
*the whole song is played in powerchords, or at least the electric guitar ;)
Intro F
Verse
I'm not [F]lost
I just haven't found
Everything i need
I'm not [A#]torn
I'm just getting it together
I'm not [F]broken
Don't you mind
The pieces of me
You see [A#]scattered on the ground
I swear I'll turn this thing around
 
 e|1---1---1---1---1---1---1-3-1--|
 b|--1---1---1---1---1---1-------1|
 g|-------------------------------|
 d|-------------------------------|
 a|-------------------------------|
 e|-------------------------------| x4

I'm not [F]home but I'm sitting
here in my room
I'm a [A#]photograph in need of a zoom
I feel [F]far away
I can't make out the face
It's all [A#]blurred since you went away
Prechorus
 
 e|1---1---1---1---1-1-1-1-1-1-1-1|
 b|--1---1---1---1-1-1-1-1-1-1-1-1|
 g|-------------------------------|
 d|-------------------------------|
 a|-------------------------------|
 e|-------------------------------|

You took your [C]keys out
You [A#]took a little piece of me
Chorus
I'm a [F]circle incomplete
I'm a [A#]heart that barely beats
All the [D]memories stay forever like t[C]attoos
I'm a [F]star without sky
I'm [A#]hello with no goodbye
I'm the [G]dreams we had that never will come [C]true
That's me with no [F]you[A#]
[F] [A#]  
Verse
 
 e|-------------------------------|
 b|-------------------------------|
 g|-------------------------------|
 d|-------------------------------|
 a|----0-3-1~-1-3----0-3-1~-1h3-1-|
 e|1~-------------1~--------------|

I'm a [F]mark
I'm a morter
I'm a victim
I'm a jerk
I'm an [A#]engine that just doesn't seem to start
I'm a [F]kingdom with no king
I'm a king with no crown
So I'll [A#]fall down on my knees
And I pray that nobody sees
 
 e|-----------------------------------|
 b|-----------------------------------|
 g|-----------------------------------|
 d|5-5-5-5-5-5-5-5-3-3-3-3-3-3-3-3----|
 a|3-3-3-3-3-3-3-3-1-1-1-1-1-1-1-1----|
 e|--------------------------------/12|

PM. . . . . . . .
You got my [C]attention
Now please come back to [A#]me
Come back to me
Chorus
I'm a [F]circle incomplete
I'm a [A#]heart that barely beats
All the [D]memories stay forever like t[C]attoos
I'm a [F]star without sky
I'm [A#]hello with no goodbye
I'm the [G]dreams we had that never will come [C]true
That's me with no [A#]you
Bridge
 
 e|6---6---6---6----------------------|
 b|--6---6---6---6-6---6---6---6------|
 g|------------------5---5---5---5----|
 d|-----------------------------------|
 a|-----------------------------------|
 e|-----------------------------------| x2
 e|10---10---10---10---8---8---8---8--|
 b|---10---10---10---10--8---8---8---8|
 g|-----------------------------------|
 d|-----------------------------------|
 a|-----------------------------------|
 e|-----------------------------------|
 e|6---6---6---6---6---6---6---6---1.-|
 b|--6---6---6---6---6---6---6---6-1.-|
 g|-----------------------------------|
 d|-----------------------------------|
 a|-----------------------------------|
 e|-----------------------------------|

Can't find the words to fit the [F]melody
But I [A#]swear that I could sing it
When [F]you were here with me
I'm all [D]over the place on a scale of one to [C]ten
I'm a [A#]C that's me
I'm not [F]lost
Ijust haven't found
Everything i need
I'm not [A#]torn
I'm just getting it together
Chorus
I'm a [F]circle incomplete
I'm a [A#]heart that barely beats
All the [D]memories stay forever like t[C]attoos
I'm a [F]star without sky
I'm [A#]hello with no goodbye
I'm the [G]dreams we had that never will come [C]true
That's me with no [F]you[A#]
Outro
F A# x3
[A#] [A#] [C] [F]  
That's it :)

Important: The song above is NOT stored on the Chordie server. The original song is hosted at www.azchords.com. Chordie works as a search engine and provides on-the-fly formatting. Chordie does not index songs against artists'/composers' will. To remove this song please click here.

Text color:
Chord color:
Chord grids: 
Font size:    
Page size: 

A# C D F G
Rate #1 of 3 versions

Login - add to songbook

SHARE PAGE  



You need to log in to post comments