Guitar Tabs, Chords and Lyrics
Major upgrade!! After one year development the new version of Chordie is now online! Please give feedback.


Celebrity  Brad Paisley

This is Brads new single.............well I dont know for sure if its out
yet.I am 15 and this is my first tab ever...................ive been a member
of this site for a while. I mostly play brad Paisley lol. Hes awsome! i got to
see Brad live at a festival for and hour. I would recomend anybody to go see
Brad whenever they can.
 
 -------------------------------------------------------------------------------------
 -------------------------------------------------------------------------------------
 -------------------------------------------------------------------------------------
 ------------2----3--2b(3)r2--------------------2--3--2b(3)r2---------------------
 -----5b(7)----3------------3s5s3-------3--5b(7)--3-------------3s5s3-------3-3hold
 ----------------------------------3--5---------------------------------3--5---------

Some[C]day I'm gonna be famous, d[G]o I have tal[F]ent? well no[C]
These days you dont really need it, T[G]hanks to rea[F]lity s[C]hows
Can't wait to date a supermodel, [G]Can't wait to [F]sue my d[C]ad
[G] [F] [C]  
 
 Can't wait to wreck a ferrari, d---3-2---------------- On my way to re hab
 a--------3s5-----------

Cause when your a ce[C]lee[F]ee[G]eeeebrity, its adios re[C]aaa[F]aal[G]ity
You can act just like a fo[Am]ol and people think yer coo[F]l just cause your on tv........
 
 e------------------------------
 b-----3-------1-------1-------
 g---0-------0-------0---------
 d-5----5--3----3--2---2--0---
 a------------------------------
 e------------------------------

2nd verse licks
 
 lick 1 a------------------3-x-5b(7)-5
 e--x-x-3-x-x-3h5--------------
 lick 2 e------------------------------
 b------------------------------
 g---------------0-7s9-9hold--
 d---------0-5s7---------------
 a-----2s3---------------------
 e-2s3-------------------------
 lick 3 e-15-15-12---------------------------------
 b------------13-----------------------------
 g---------------12---------------------------
 d------------------14------------------------
 a----------------------12sxxxxxxxxxxxxx
 e-------------------------------------------2s3
 lick 4 e------------------------------------------------
 b------------------------------------------------
 g-------5--4p0--------0------------------------
 d-0------------2p1p0h1-x-1p0-----------------
 a --6h7--6---------------------3-2-3------------
 e------------------------------------------------

lol well those are the licks.................at least
the way i play em i pretty much learned em by ear. Heres the solo!!!!!!!!! or
at least how i play it lol. Alota the bends are difficult though. probably
because Brads got a g bender lol.
Solo!!!!!!
 
 e-x-------------------------------------------------5----------------
 b-x-------------------------3-3-----------------------8-5----------
 g-x--------------2b(3)hold-2-2-(3)r2-------5-7b9hold-7-7-7r(9)7-5-
 d-x-0h2-2-2h3-2--------------------3~-5s7-5------------------------
 a-x-------3------------------------------------------------------------
 e-x--------------------------------------------------------------------
 e----------8p0---0-15-13p12------------------------------------------
 b-----------------------------15s13----------------------10-----------
 g------9-9----s14------------------r(14)12-10---10-12b14--12b14-----
 d-7s10----------------------------------------12-----------------------
 a------------------------------------------------------------------------
 e------------------------------------------------------------------------

lol well there it is.................my first tab...............post some
comments on here and tell me whatcha think. (how'd i do axe)
lol..............somebody has already tabbed the chords and the lyrics on
country tabs so i only did the first verse and chorus. thanks all!

Important: The song above is NOT stored on the Chordie server. The original song is hosted at www.azchords.com. Chordie works as a search engine and provides on-the-fly formatting. Chordie does not index songs against artists'/composers' will. To remove this song please click here.

Text color:
Chord color:
Chord grids: 
Font size:    
Page size: 

Am C F G
Rate #1 of 7 versions

Jango Player

Login - add to songbook

SHARE PAGE  




You need to log in to post comments