Guitar Tabs, Chords and Lyrics
Server problems seems to be fixed. Chordie has been experiencing problems with songs disappearing. These issues now seems to be fixed, but still verifying the fix. If you find anything strange, please email admin@chordie.com.


Gold All Over the Ground  Brad Paisley

[Intro] 
 
 e|-----------------|---------------|-------------|----------|-------------|
 B|-----------------|---------------|-------------|----------|-------------|
 G|-----------------|---------------|-------------|----------|-------------|
 D|-----2-------2---|-----2---2---2-|-----2---2h4-|---2--2h4-|-------0-----|
 A|---0---0---0---0-|---0---0---0---|---0---0-----|----------|---0h2---0---|
 E|-0-------0-------|-0-------------|-5-----------|-5--------|-0---------0-|
 e|-------------------|-------------------|-----------------|------------|
 B|-------------------|-------------------|-----------------|----------3-|
 G|-------------2-----|-------------2-----|-------------2---|------------|
 D|-4-2-4-2-4-2---4---|-4-2-4-2-4-2---4---|-4-2-4-2-4-2---4-|-4-2-4-2----|
 A|-------------------|-------------------|-----------------|------------|
 E|-----------------0-|-----------------5-|-----------------|------------|

[Verse 1] 
If I h[D]ad you at my mercy, there's no t[D]elling what I'd do
But I'd s[G]it and make you listen for an hour, maybe two
And t[D]hen you'd know I need you, every d[D]ay that rolls around
And your f[G]eet would walk on velvet with g[A]old all over the g[D]round[G]
[Verse 2] 
Your tr[D]ails would be downhill, a s[D]oft breeze at your back
a s[G]ky full of diamonds, and your ni[G]ghts would not be black
yes, y[D]ou would really love it, and [D]if you're ever down
I'd g[G]ive you rows of roses, and g[A]old all over the g[D]round
[Cborus] 
I'd p[G]ick you up and carry you 'cross e[A]very stream I see
and I'd bu[D]ndle you in kindness until you cling to me
we'd s[G]it beneath strong branches, my a[A]rms would twine around
and I'd t[G]urn your green to emerald, and give you g[A]old all over the gr[D]ound
[Solo] 
[D] [G] [D] [G]  
[Cborus] 
I'd p[G]ick you up and carry you 'cross ev[A]ery stream I see
and I'd bu[D]ndle you in kindness until you cling to me
we'd [G]sit beneath strong branches, my a[A]rms would twine around
I'd t[G]urn your green to emerald, and your s[A]ky is full of diamonds
and give you g[A]old all over the gr[D]ound
[Outro] 
[D] [G] [D] [G] 

Important: The song above is NOT stored on the Chordie server. The original song is hosted at www.azchords.com. Chordie works as a search engine and provides on-the-fly formatting. Chordie does not index songs against artists'/composers' will. To remove this song please click here.

Text color:
Chord color:
Chord grids: 
Font size:    
Page size: 

A D G
Rate #1 of 1 versions

Login - add to songbook

SHARE PAGE  



You need to log in to post comments