Guitar Tabs, Chords and Lyrics
Server problems seems to be fixed. Chordie has been experiencing problems with songs disappearing. These issues now seems to be fixed, but still verifying the fix. If you find anything strange, please email admin@chordie.com.


Gone Green  Brad Paisley

Intro:
 
 e|---------------------------------------------------------------------------|
 B|------3--------------------------------------------------------------------|
 G|--2h4----2p0------0--------------------------------------------------------|
 D|--------------2h4----2h4-2p0-----------------------------------------------|
 A|---------------------------------------------------------------------------|
 E|------------------------------3--------------------------------------------|
 e|---------------------------------------------------------------------------|
 B|--------3------------------------------------------------------------------|
 G|--2h4-4---2p0-----0------------0------0------0-----------------------------|
 D|--------------2h4---2h4-2p0----------0------0------0h2-0-00----------------|
 A|----------------------------3p2--2h3----0h2----2h3-------------------------|
 E|---------------------------------------------------------------------------|
 e|---------------------------------------------------------------------------|
 B|--------3------------------------------------------------------------------|
 G|--2h4-4---2p0-----0------------0------0------0-----------------------------|
 D|--------------2h4---2h4-2p0----------0------0------------------------------|
 A|----------------------------3p2--2h3----3p2----2-0-------------------------|
 E|---------------------------------------------------2-3---------------------|
 e|---------------------------------------------------------------------------|
 B|--------3------------------------------------------------------------------|
 G|--2h4-4---2p0-----0------------0------0------0-----------------------------|
 D|--------------2h4---2h4-2p0----------0------0------0h2-0-------------------|
 A|----------------------------3p2--2h3----0h2----2h3-------------------------|
 E|---------------------------------------------------------------------------|
 e|---------------------------------------------------------------------------|
 B|--------3------------------------------------------------------------------|
 G|--0h2h4---4-2p0-----0------------0------0------0---------------------------|
 D|----------------2h4---2h4-2p0----------0------0----------------------------|
 A|------------------------------3p2--2h3----3p2----2-0-----------------------|
 E|-----------------------------------------------------2-3-------------------|

Verse 1: G Cadd2 C D
 
 |--3--| |--3--| |--0--| |--2--|
 |--3--| |--3--| |--1--| |--3--|
 |--0--| |--0--| |--0--| |--2--|
 |--0--| |--2--| |--2--| |--0--|
 |--2--| |--3--| |--3--| |--0--|
 |--3--| |--x--| |--3--| |--x--|

[G] [Cadd2]  
Well he traded in his dumb old Ford
[D] [G] 
For a new smart car with an extension cord
[C] 
Now he's saving gas and got a cheaper note
[D] [G]  
But he's got no way to haul his boat
Chorus 1: The "C" chord is at the beginning of the chorus is played down from a C to a
Cmaj9/B to a Em#5
then back to a G
[C] [Cmaj9/B] [Em#5] [G]  
It's the little things we take for granted
[D] [G]  
When we sacrifice to save the planet * If you can, this little
progression is in
the C chord and sounds good.
 
 C e|---------------|
 B|---------1-----|
 The darndest thing I've ever seen G|-----0---------|
 D|-------2-------|
 D A|---3-----------|
 E|---------------|

That old redneck has done gone green
 
 e|---------------------------------------------------------------------------|
 B|--------3------------------------------------------------------------------|
 G|--2h4-4---2p0-----0------------0------0------0-----------------------------|
 D|--------------2h4---2h4-2p0----------0------0------------------------------|
 A|----------------------------3p2--2h3----3p2----2-0-------------------------|
 E|---------------------------------------------------2-3---------------------|

Verse 2:
[G] [Cadd2]  
Down the road, old man McGower
[D] [G] 
You know he runs his house on the solar power
C (play a little harder on this part)
Now his lights are bright and the music plays
D (play soft down strums) G (gradually heavier down strums)
Sort of dark and quiet on the cloudy days
Chorus 2: played exactly the same as chorus 1
[C] [Cmaj9/B] [Em#5] [G]  
It's the little things we take for granted
[D] [G]  
When we sacrifice to save the planet
[C]  
The darndest thing you've ever seen
D G (gradually heavier down strums)
This old redneck has done gone green
Solo:
 
 e|---------------------------------------------------------------------------|
 B|--------3------------------------------------------------------------------|
 G|--2h4-4---2p0-----0------------0------0------0-----------------------------|
 D|--------------2h4---2h4-2p0----------0------0------0h2-0-------------------|
 A|----------------------------3p2--2h3----0h2----2h3-------------------------|
 E|---------------------------------------------------------------------------|
 e|---------------------------------------------------------------------------|
 B|--------3------------------------------------------------------------------|
 G|--0h2h4---4-2p0-----0------------0------0------0-2-0-----------------------|
 D|----------------2h4---2h4-2p0----------0-------------2-0-------------------|
 A|------------------------------3p2--2h3----3p2------------2-3---------------|
 E|---------------------------------------------------------------------------|
 e|----------------3--------------------------------------------------------------------------------3---|
 B|------------------5p3------5p0--7p0--5\3-----3p1-------------------------------------------------3---|
 G|--------2h3-3/4-------4/7----------------000-----3p2-0--0----------4p0-----0---------------------0---|
 D|--2h4/5------------------------------------------------3-3/5-3h4h5-----2p0-----------------------0---|
 A|--------------------------------------------------------------------------------1/2-1/2-1/2------2---|
 E|---------------------------------------------------------------------------------------------3---3---|

after the the solo it goes G, Cadd2, G, D, G then into next part.
[D] [G] [C]  
The life we knew is coming to a halt
D (just a run through of the strings in the D position)
Sad but true, and it's our own fault
[G] [C] 
We put our own crimson necks right in the noose
[D]  
We got strung out on that black dinosaur juice
[C]  
Not long ago someone told me
[D] [G]  
To quit using paper, stop killing trees
C (pick strings A D G and B by themselves in the C position)
She said soon there won't be no more books
D G (gradually heavier down strums)
I swear to God on a stack of nooks
Chorus 3:
[C] [Cmaj9/B] [Em#5] [G]  
It's the little things we take for granted
[D] [G]  
When we sacrifice to save the planet
[C]  
The darndest thing I've ever seen
[D] [G]  
My redneck world has done gone green
[D] [G]  
The whole dang place has done gone green
Outro:
 
 e|---------------------------------------------------------------------------|
 B|--------3------------------------------------------------------------------|
 G|--2h4-4---2p0-----0------------0------0------0-----------------------------|
 D|--------------2h4---2h4-2p0----------0------0------0h2-0-------------------|
 A|----------------------------3p2--2h3----0h2----2h3-------------------------|
 E|---------------------------------------------------------------------------|
 e|---------------------------------------------------------------------------|
 B|--------3------------------------------------------------------------------|
 G|--0h2h4---4-2p0-----0------------0------0------0---------------------------|
 D|----------------2h4---2h4-2p0----------0------0----------------------------|
 A|------------------------------3p2--2h3----3p2----2-0-----------------------|
 E|-----------------------------------------------------2-3-------------------|
 e|--------------------------------------------------------3-------------------|
 B|------3-------------------------------------------------3-------------------|
 G|--2h4----2p0------0-----------------0------0-------0----0-------------------|
 D|--------------2h4----2h4-2p0-------0------0-------------0-------------------|
 A|-------------------------------2h3----3p2----2h3/5------2-------------------|
 E|--------------------------------------------------------3-------------------| 


Important: The song above is NOT stored on the Chordie server. The original song is hosted at www.azchords.com. Chordie works as a search engine and provides on-the-fly formatting. Chordie does not index songs against artists'/composers' will. To remove this song please click here.

Text color:
Chord color:
Chord grids: 
Font size:    
Page size: 

C Cadd2 D Em#5 G
Rate #1 of 1 versions

Jango Player

Login - add to songbook

SHARE PAGE  



You need to log in to post comments