Guitar Tabs, Chords and Lyrics
Major upgrade!! After one year development the new version of Chordie is now online! Please give feedback.


I'll Take You Back  Brad Paisley

Drop D
[D]  
 
 ---------------------------------------0------------------------
 -----------------------------------0-----6---0------------------
 ---------------------------------5---7-----7---5p0---0---5p0----
 -------------3-----5-7-5-----5h7-------------------7--(5)----7--
 -------3p0-5---5/7-------5-8------------------------------------
 -0h3h5----------------------------------------------------------
 -------------------------------------------------------7--------
 ------------------------------------------------------------10--
 -0---------------------------0---------0-------7-9b(11)-(11)----
 ------3~-----------------------7p5-------7---9------------------
 --(5)----5p3p0---0-5p3p0-5/7-------7/9-----9--------------------
 ---------------5------------------------------------------------

[C]  
 
 -5----------------------------5-----------------------
 -8b(10)-(7)pbr5-----------8-5--(5)8-------------------
 ----------------7-5-7b(9)-----------(9)pbr7-----------
 ------------------------------------------------------
 ------------------------------------------------------
 ------------------------------------------------------

[G]  
 
 -------12-15p13p12-----------------------------------------------
 -----13------------15p13p12--------------------------------------
 -5/12-----------------------14p12p0------------------------------
 ------------------------------------14-14p12p0-------------------
 -----------------------------------------------14-13-12\---------
 --------------------------------------------------------(3)/10\--

[D] [G] 
 
 -------------------------------------10-10-----------------------
 -3---1p0-----------------------------10-10----10b(11)r10---------
 ---2-----2p1p0--0h1p0----------------------9---9b(10)r9----------
 ---------------2------2p1p0----------------9---9b(10)r9----------
 -----------------------------------------------------------------
 ----------------------------2b(3)-0------------------------------

[C] [G] 
 
 ------------------------------------------------------------------------
 ------------------------------------------------------------------------
 ------(0)h5-----(0)h7------(0)h9-------(0)h10-------(0)h12-------(0)h14-
 ------------------------------------------------------------------------
 -0h5h7-----0h7h9-----0h9h10-----0h10h12------0h12h14------0h14h16-------
 ------------------------------------------------------------------------

[D]  
 
 -----------------------------------15----17-15----17/19-15h17p15----
 ----------------------15-15-15b(17)--(17)-----(17)---------------17-
 --------(0)h15--------15--------------------------------------------
 --------------------------------------------------------------------
 -0h15h17------0h17h19-----------------------------------------------
 --------------------------------------------------------------------
 -14h15p14----15p14-----------------------------------------------
 ----------17-------17----15-14-13-12--------8---6h7--------------
 ----------------------14-------------14--\7---7-----7\-----------
 -----------------------------------------------------------------
 -----------------------------------------------------------------
 -----------------------------------------------------------------


Important: The song above is NOT stored on the Chordie server. The original song is hosted at www.azchords.com. Chordie works as a search engine and provides on-the-fly formatting. Chordie does not index songs against artists'/composers' will. To remove this song please click here.

Text color:
Chord color:
Chord grids: 
Font size:    
Page size: 

C D G
Rate #1 of 3 versions

Login - add to songbook

SHARE PAGE  



You need to log in to post comments