Guitar Tabs, Chords and Lyrics
Server problems seems to be fixed. Chordie has been experiencing problems with songs disappearing. These issues now seems to be fixed, but still verifying the fix. If you find anything strange, please email admin@chordie.com.


Part Two  Brad Paisley

Brad Paisley
"Part Two"
(Intro) A, D, A, D
(Verse 1)
[A]Hollywood, never [D]fails to make [A]a sequel
D A (fill 1)
For each and every movie that does well
[E]Why can't love be [A]more like that
When the [E]best ones get a[A] second chance
[D]That way though your [A/C#]gone
It w[B]ouldn't be that [E]long...[E7]
(Chorus)
D (fill 2) A (fill 3)
(1)'Til I'd see you... in part two
D (fill 2) A (fill 3)
(2) And I'd see you... in part two
And we'd pick [E]up where we left off
A (fill 4)
When I lost you
And we'd [D]fall in love again
And change the [A]way the st[Asus]ory ends
And we'd [E]bring back me and you
(Intro on 1st and 3rd verses)
In part two
(Verse 2)
[A]Lookin' back, we had [D]so much to look [A]forward to
D A (fill 1)
The kind of love that deserves to be continued
If[E] this were only [A]Tenseltown
By [E]now they would have [A]figured out
A [D]way for you and[A/C#] I...
To [B]give it one more [E]try[E7]
(Chorus)
(fill 5)
(Outro) (same as 2nd half of chorus)
(fill 6)
 
 ------------------------------------------------------------

(Intro tabs)
 
 E ----------------------------------------
 B -------------------------------------3--
 G --------2-----2-----2-------------------
 D -----2-----2-----2-----2----0--2--h4----
 A --0-------------------------------------
 E ----------------------------------------

(Fill 1 tabs) (Fill 2 tabs)
 
 E -------------------- E ----------
 B -------------------- B --0-0--2--
 G -------------------- G ----------
 D -------------------- D ----------
 A -----0--2--4--2--0-- A ----------
 E --0----------------- E ----------

(Fill 3 tabs) (Fill 4 tabs)
 
 E --------------- E -----------------------
 B --------------- B -----------------------
 G --------------- G -----------------------
 D --0--0------2-- D --------------------0--
 A ---------4----- A -----0----2----4-------
 E --------------- E --0--------------------

(Fill 5 tabs) (Fill 6 tabs)
 
 E --------------------- E -----------------0--
 B --------------------- B --3--2--0--------0--
 G --------------------- G ------------2----2--
 D --2---0-------------- D -----------------2--
 A -----------4---2--0-- A -----------------0--
 E --------------------- E --------------------


Important: The song above is NOT stored on the Chordie server. The original song is hosted at www.azchords.com. Chordie works as a search engine and provides on-the-fly formatting. Chordie does not index songs against artists'/composers' will. To remove this song please click here.

Text color:
Chord color:
Chord grids: 
Font size:    
Page size: 

A A/C# Asus B D E E7
Rate #1 of 3 versions

Jango Player

Login - add to songbook

SHARE PAGE  



You need to log in to post comments