Guitar Tabs, Chords and Lyrics
Server problems seems to be fixed. Chordie has been experiencing problems with songs disappearing. These issues now seems to be fixed, but still verifying the fix. If you find anything strange, please email admin@chordie.com.


Jingle Bell Rock  Brenda Lee

Gtr I (E A D G B E) - 'Hank Garland - Electric Guitar'
Intro
Q=126(8=s8)
N.C. F#m N.C.
[4/4] Gtr I
E E Q E E Q E E E E E E E E W E E Q Q Q
 
 |-14-14-14--14-14-14--|-14-17----------------------|-----------|--------------||
 |-15-15-15--14-14-14--|-15----15-17-------17-15----|-14--------|--------------||
 |---------------------|-------14-16-15b16-16-14----|-14--------|--------------||
 |---------------------|-------------------------17-|-16--------|--------------||
 |---------------------|----------------------------|-----------|--------------||
 |---------------------|----------------------------|-----------|---5-3--2--0--||

1st Verse
D Dmaj7 D6 F#m D6 D#° Em A7
[E] [E] [E] [E] [E] [E] [E] [E] [E] [E] [E] [E] [E] [E] [E] [E] [E] [E] [E] [E] [E] [E] [E] [E] [E] [E] [E] [E] [E] [E] [E] [E]  
 
 |-2-2-2-2-2-2-2-2-|-2-2-2-2-----2-2-|-2-2-2-2-2-2-2-2-|-0-0-0-0-0-0-0-0--|
 |-3-3-3-3-2-2-2-2-|-0-0-0-0-----2-2-|-0-0-0-0-0-0-0-0-|-0-0-0-0-2-2-2-2--|
 |-2-2-2-2-2-2-2-2-|-2-2-2-2-----2-2-|-2-2-2-2-2-2-2-2-|-0-0-0-0-0-0-0-0--|
 |-0-0-0-0-0-0-0-0-|-0-0-0-0-2S4-----|-0-0-0-0-1-1-1-1-|-2-2-2-2-2-2-2-2--|
 |-----------------|-----------------|-----------------|-2-2-2-2-0-0-0-0--|
 |-----------------|-----------------|-----------------|-0-0-0-0----------|

[Em] [A7] [Em] [A7] [Em] [A7] 
[E] [E] [E] [E] [E] [E] [E] [E] [E] [E] [E] [E] [E] [E] [E] [E] [E] [E] [E] [E] [E] [E] [E] [E] [E] [E] [E] [E] [E] [E] [E] [E]  
 
 |-0-0-0-0-0-0-0-0-|-0-0-0-0-0-0-0-0-|-0-0-0-0-0-0-0-0-|-0-0-0-0-0-0-0-0--||
 |-0-0-0-0-2-2-2-2-|-0-0-0-0-2-2-2-2-|-0-0-0-0-0-0-0-0-|-2-2-2-2-2-2-2-2--||
 |-0-0-0-0-0-0-0-0-|-0-0-0-0-0-0-0-0-|-0-0-0-0-0-0-0-0-|-0-0-0-0-0-0-0-0--||
 |-2-2-2-2-2-2-2-2-|-2-2-2-2-2-2-2-2-|-2-2-2-2-2-2-2-2-|-2-2-2-2-2-2-2-2--||
 |-2-2-2-2-0-0-0-0-|-2-2-2-2-0-0-0-0-|-2-2-2-2-2-2-2-2-|-0-0-0-0-0-0-0-0--||
 |-0-0-0-0---------|-0-0-0-0---------|-0-0-0-0-0-0-0-0-|------------------||

2nd Verse
D Dmaj7 D6 F#m D6 D#° Em A7
[E] [E] [E] [E] [E] [E] [E] [E] [E] [E] [E] [E] [E] [E] [E] [E] [E] [E] [E] [E] [E] [E] [E] [E] [E] [E] [E] [E] [E] [E] [E] [E]  
 
 |-2-2-2-2-2-2-2-2-|-2-2-2-2-----2-2-|-2-2-2-2-2-2-2-2-|-0-0-0-0-0-0-0-0--|
 |-3-3-3-3-2-2-2-2-|-0-0-0-0-----2-2-|-0-0-0-0-0-0-0-0-|-0-0-0-0-2-2-2-2--|
 |-2-2-2-2-2-2-2-2-|-2-2-2-2-----2-2-|-2-2-2-2-2-2-2-2-|-0-0-0-0-0-0-0-0--|
 |-0-0-0-0-0-0-0-0-|-0-0-0-0-2S4-----|-0-0-0-0-1-1-1-1-|-2-2-2-2-2-2-2-2--|
 |-----------------|-----------------|-----------------|-2-2-2-2-0-0-0-0--|
 |-----------------|-----------------|-----------------|-0-0-0-0----------|

[Em]E E E E [A7]E E E E [Em]E E E E [A7]E E E E [Em]E E E E [A7]E E E E [D]E E E Q E Q
 
 |-0-0-0-0-0-0-0-0-|-0-0-0-0-0-0-0-0-|-0-0-0-0-0-0-0-0-|-2-2-2-2--2-2---||
 |-0-0-0-0-2-2-2-2-|-0-0-0-0-2-2-2-2-|-0-0-0-0-2-2-2-2-|-3-3-3-3--3-3---||
 |-0-0-0-0-0-0-0-0-|-0-0-0-0-0-0-0-0-|-0-0-0-0-0-0-0-0-|-2-2-2-2--2-2---||
 |-2-2-2-2-2-2-2-2-|-2-2-2-2-2-2-2-2-|-2-2-2-2-2-2-2-2-|-0-0-0-0--0-0---||
 |-2-2-2-2-0-0-0-0-|-2-2-2-2-0-0-0-0-|-2-2-2-2-0-0-0-0-|----------------||
 |-0-0-0-0---------|-0-0-0-0---------|-0-0-0-0---------|----------------||

Bridge
G G#° D
E E E Q E Q E E E Q E Q E E E Q E Q E E E Q E Q
 
 |-3-3-3-3--3-3--|---------------|-2-2-2-2--2-2--|-2-2-2-2--2-2---|
 |-3-3-3-3--3-3--|-3-3-3-3--3-3--|-3-3-3-3--3-3--|-3-3-3-3--3-3---|
 |-0-0-0-0--0-0--|-4-4-4-4--4-4--|-2-2-2-2--2-2--|-2-2-2-2--2-2---|
 |-0-0-0-0--0-0--|-0-0-0-0--0-0--|-0-0-0-0--0-0--|-0-0-0-0--0-0---|
 |---------------|---------------|---------------|----------------|
 |-3-3-3-3--3-3--|-4-4-4-4--4-4--|---------------|----------------|

E E7 A N.C.
E E E Q E Q E E E Q E Q Q Q H E E Q Q Q
 
 |-0-0-0-0--0-0--|-0-0-0-0--0-0--|------------|---------------||
 |-0-0-0-0--0-0--|-0-0-0-0--0-0--|-2----------|---------------||
 |-1-1-1-1--1-1--|-1-1-1-1--1-1--|-2----------|---------------||
 |-2-2-2-2--2-2--|-0-0-0-0--0-0--|-2----------|---------------||
 |-2-2-2-2--2-2--|-2-2-2-2--2-2--|-0----------|---------------||
 |-0-0-0-0--0-0--|-0-0-0-0--0-0--|------------|---5-3--2--0---||

3rd Verse
[D] [Dmaj7] [D6] ~~~
E E E E E E E E E E E E E Q E
 
 |-2-2-2-2-2-2-2-2-|-2-2-2-2---/10----|
 |-3-3-3-3-2-2-2-2-|-0-0-0-0---/10----|
 |-2-2-2-2-2-2-2-2-|-2-2-2-2----------|
 |-0-0-0-0-0-0-0-0-|-0-0-0-0----------|
 |-----------------|------------------|
 |-----------------|------------------|

D#° B7 N.C.
 
 |--3--| |--3--| |--3--|

E E E E E E E E Q E E E E E E E E E
 
 |-2-2-2-2-2-2-2-2-|-2-----------------------------|
 |-0-0-0-0-0-0-0-0-|-0-----10----12----12----13----|
 |-2-2-2-2-2-2-2-2-|-2--11----11----11----14----12-|
 |-0-0-0-0-1-1-1-1-|-1-----------------------------|
 |-----------------|-2-----------------------------|
 |-----------------|-------------------------------|

G Gm Em D N.C.
 
 |--3--| |--3--| |-3-|

W E E E Q E E E W Q E E E E E E E E E
 
 |-----------|-3-3-3-3--3-3-----|-----------|-2--------------------------||
 |-12--------|-3-3-3-3--3-3-/11-|-12--------|-3-----12-------10------8---||
 |-12--------|-3-3-3-3--3-3-/10-|-11--------|-2--12----12-11----11-9---9-||
 |-----------|-0-0-0-0--0-0-/11-|-12--------|-0--------------------------||
 |-----------|------------------|-----------|----------------------------||
 |-----------|-3-3-3-3--3-3-----|-----------|----------------------------||

4th Verse
D D6 D6 D#° Em A7
~~~
W E E E E E Q E E E E E E E E E E E E E E E Q
 
 |----------|-2-2-2-2---/10----|-2-2-2-2-2-2-2-2-|-0-0-0-0-0-----17---|
 |----------|-0-0-0-0---/10----|-0-0-0-0-0-0-0-0-|-0-0-0-0-2-----14---|
 |-7--------|-2-2-2-2----------|-2-2-2-2-2-2-2-2-|-0-0-0-0-0-/16------|
 |-7--------|-0-0-0-0----------|-0-0-0-0-1-1-1-1-|-2-2-2-2-2----------|
 |----------|------------------|-----------------|-2-2-2-2-0----------|
 |----------|------------------|-----------------|-0-0-0-0------------|

[Em]E E E E [A7]E E E E [Em]E E E E [A7]E E Q
 
 |-0-0-0-0-0-0-0-0-|-0-0-0-0-0-----17--|
 |-0-0-0-0-2-2-2-2-|-0-0-0-0-2-/14-----|
 |-0-0-0-0-0-0-0-0-|-0-0-0-0-0---------|
 |-2-2-2-2-2-2-2-2-|-2-2-2-2-2---------|
 |-2-2-2-2-0-0-0-0-|-2-2-2-2-0---------|
 |-0-0-0-0---------|-0-0-0-0-----------|

D N.C.
~~
 
 |--3--| |--3--| |-3-|

Q Q H Q E E E E E E E E E
 
 |-------------|-2--------------------------||
 |-12----------|-3-----12-------10------8---||
 |-12----------|-2--12----12-11----11-9---9-||
 |-------------|-0--------------------------||
 |-------------|----------------------------||
 |-------------|----------------------------||

Bridge
G G#° D
W E E E Q E Q E E E Q E Q E E E Q E Q
 
 |-----------|---------------|-2-2-2-2--2-2--|-2-2-2-2--2-2---|
 |-12--------|-3-3-3-3--3-3--|-3-3-3-3--3-3--|-3-3-3-3--3-3---|
 |-12--------|-4-4-4-4--4-4--|-2-2-2-2--2-2--|-2-2-2-2--2-2---|
 |-----------|-0-0-0-0--0-0--|-0-0-0-0--0-0--|-0-0-0-0--0-0---|
 |-----------|---------------|---------------|----------------|
 |-----------|-4-4-4-4--4-4--|---------------|----------------|

E E7 A N.C.
E E E Q E Q E E E Q E Q Q Q H E E Q Q Q
 
 |-0-0-0-0--0-0--|-0-0-0-0--0-0--|------------|---------------||
 |-0-0-0-0--0-0--|-0-0-0-0--0-0--|-2----------|---------------||
 |-1-1-1-1--1-1--|-1-1-1-1--1-1--|-2----------|---------------||
 |-2-2-2-2--2-2--|-0-0-0-0--0-0--|-2----------|---------------||
 |-2-2-2-2--2-2--|-2-2-2-2--2-2--|-0----------|---------------||
 |-0-0-0-0--0-0--|-0-0-0-0--0-0--|------------|---5-3--2--0---||

Outro
[D] [Dmaj7] [D6] ~~~
E E E E E E E E E E E E E Q E
 
 |-2-2-2-2-2-2-2-2-|-2-2-2-2---/10----|
 |-3-3-3-3-2-2-2-2-|-0-0-0-0---/10----|
 |-2-2-2-2-2-2-2-2-|-2-2-2-2----------|
 |-0-0-0-0-0-0-0-0-|-0-0-0-0----------|
 |-----------------|------------------|
 |-----------------|------------------|

D#° B7 N.C.
 
 |--3--| |--3--| |--3--|

E E E E E E E E Q E E E E E E E E E
 
 |-2-2-2-2-2-2-2-2-|-2-----------------------------|
 |-0-0-0-0-0-0-0-0-|-0-----10----12----12----13----|
 |-2-2-2-2-2-2-2-2-|-2--11----11----11----14----12-|
 |-0-0-0-0-1-1-1-1-|-1-----------------------------|
 |-----------------|-2-----------------------------|
 |-----------------|-------------------------------|

[G] W E E E Q E E E [Em] H. +E [A7] E [Em] H. +E [A7] E
 
 |-----------|-3-3-3-3--3-3-----|------------------|-------------------|
 |-12--------|-3-3-3-3--3-3-/11-|-12-------(12)-11-|-12-------(12)-11--|
 |-12--------|-3-3-3-3--3-3-/10-|-11-------(11)-10-|-11-------(11)-10--|
 |-----------|-0-0-0-0--0-0-/11-|-12-------(12)-11-|-12-------(12)-11--|
 |-----------|------------------|------------------|-------------------|
 |-----------|-3-3-3-3--3-3-----|------------------|-------------------|

Em N.C. Asus4
W E E Q E E Q E E E E H W +W
 
 |-----------|-14-14-14--14-14-14--|---------------------|-10--------|-(10)----*|
 |-12--------|-15-15-15--14-14-14--|-17b19-15-17-15------|-10--------|-(10)----*|
 |-11--------|---------------------|---------------------|--9--------|--(9)----*|
 |-12--------|---------------------|---------------------|--9--------|--(9)----*|
 |-----------|---------------------|---------------------|-----------|---------*|
 |-----------|---------------------|---------------------|-----------|---------*|


Important: The song above is NOT stored on the Chordie server. The original song is hosted at www.azchords.com. Chordie works as a search engine and provides on-the-fly formatting. Chordie does not index songs against artists'/composers' will. To remove this song please click here.

Text color:
Chord color:
Chord grids: 
Font size:    
Page size: 

A7 D D6 Dmaj7 E Em G
Rate #1 of 1 versions

Login - add to songbook

SHARE PAGE  



You need to log in to post comments