Guitar Tabs, Chords and Lyrics
Major upgrade!! After one year development the new version of Chordie is now online! Please give feedback.


How Many Worlds  Brian Eno

[C] [C] [C] [C]  
 
 e|-------------------------------------------------------|
 B|-----5--5--5------5--5--5-------5--5--5------5--5--5---|
 G|-------------------------------------------------------|
 D|-----5--5--5------5--5--5-------5--5--5------5--5--5---|
 A|---3------------3-------------3------------3-----------|
 E|-------------------------------------------------------|

Thinking of a world and the light of the sun
[C] [C] [C] [C] [G]  
 
 e|---------------------------------------------------------------------------|
 B|-----5--5--5-------5--5--5--------5--5--5-----5--5--5----------3---3---3---|
 G|---------------------------------------------------------------------------|
 D|-----5--5--5-------5--5--5--------5--5--5-----5--5--5----------5---5---5---|
 A|---3-------------3--------------3-----------3--------------5---------------|
 E|---------------------------------------------------------------------------|

And all the many lives that were ever begu---un,
[G] [F] [F] [C]  
 
 e|------------------------------------------------------------------|
 B|-------3---3---3----------1---1---1--------1--1--1------5--5--5---|
 G|------------------------------------------------------------------|
 D|-------5---5---5----------3---3---3--------3--3--3------5--5--5---|
 A|---5------------------3------------------3------------3-----------|
 E|------------------------------------------------------------------|

Ever begun.
O[C]ur little world turning in the blue
As each day goes there's another one n[G]ew,[F]
Another one n[C]ew.
H[C]ow many people will we feed today
How many lips will we kiss tod[G]ay[F]
If we wake [C]up?
H[C]ow many worlds will we ever see,
And how many people can we ever b[G]e,[F]
If we wake [C]up?

Important: The song above is NOT stored on the Chordie server. The original song is hosted at www.azchords.com. Chordie works as a search engine and provides on-the-fly formatting. Chordie does not index songs against artists'/composers' will. To remove this song please click here.

Text color:
Chord color:
Chord grids: 
Font size:    
Page size: 

C F G
Rate #1 of 1 versions

Login - add to songbook

SHARE PAGE  



You need to log in to post comments