Guitar Tabs, Chords and Lyrics
Server problems seems to be fixed. Chordie has been experiencing problems with songs disappearing. These issues now seems to be fixed, but still verifying the fix. If you find anything strange, please email admin@chordie.com.


Nightbird  The Brian Jonestown Massacre

Capo on 1st fret
[A]I don't know what to do, [Em]laugh or cry[G] [A]
[A]Opened my eyes and said [Em]"Goodbye"[G] [A]
[A]Wake up and come [Em]back to bed[G] [A]
[A]Or think of something that I [Em]should have said[G] [A]
[G] [Em] [D] [A]  
[A]I went asleep and [Em]closed my eyes[G] [A]
[A]I spread my wings and [Em]started to fly[G] [A]
[A]As I've never been the one for [Em]long goodbyes[G] [A]
[A]A cool cool breeze goes [Em]through my mind[G] [A]
G Em D A 2x
 
 e|---------------------------------------------------------------------------|
 B|-------------------------------------8--8-8--------------------------------|
 G|---------7-8-7-8--8-8--8--8-8---10-8--------10-8-10-10---------------------|
 D|-6-8---8-------------------------------------------------------------------|
 A|---------------------------------------------------------------------------|
 E|---------------------------------------------------------------------------|
 e|---------------------------------------------------------------------------|
 B|----8----------------------------------------------------------------------|
 G|-10---10--8-8-7-------8-7-----------------------7---8---8-----8------------|
 D|----------------8-8-------8-8--6-6--8-8-----8-8---8---------8--------------|
 A|---------------------------------------------------------------------------|
 E|---------------------------------------------------------------------------|
 e|---------------------------------------------------------------------------|
 B|---------8-8-------8----------------8--------------------------------------|
 G|--8-8-10-----10-10---10-10-10----10---10-8-8-7-------8-7-------------------|
 D|-----------------------------------------------8-8-------8-8-6-6-8-8-------|
 A|---------------------------------------------------------------------------|
 E|---------------------------------------------------------------------------|

[A]She do believe in the [Em]good for the bad[G] [A]
[A]When the live you live is [Em]so damn sad[G] [A]
[A]So what to believe if I s[Em]how the way[G] [A]
[A]Threw up my hands I'm [Em]done today[G] [A]
G Em D A 3x
[G] [Em] 

Important: The song above is NOT stored on the Chordie server. The original song is hosted at www.azchords.com. Chordie works as a search engine and provides on-the-fly formatting. Chordie does not index songs against artists'/composers' will. To remove this song please click here.

Text color:
Chord color:
Chord grids: 
Font size:    
Page size: 

A D Em G
Rate #1 of 1 versions

Jango Player

Login - add to songbook

SHARE PAGE  



You need to log in to post comments