Guitar Tabs, Chords and Lyrics
Server problems seems to be fixed. Chordie has been experiencing problems with songs disappearing. These issues now seems to be fixed, but still verifying the fix. If you find anything strange, please email admin@chordie.com.


Donner und Blitzen  Broilers

Intro 1 (3x): Intro 2 (3x):
Guitar 1:
C / A / F | G | | C A | F G |
Guitar 2:
 
 e|---------------|--------------| e|-------------------------|------------------------|
 B|---------------|--------------| B|--------------8----------|-8----------------------|
 G|--9------------|--10--9--7-9--| G|--9--9-9-9--9----9-7--9--|----9-7--9--10--9--7-9--|
 D|---------------|--------------| D|-------------------------|------------------------|
 A|---------------|--------------| A|-------------------------|------------------------|
 E|---------------|--------------| E|-------------------------|------------------------|

Strophe 1:
[C]Seid sexy [A]an dem Tag,
[F]An dem wir unter [G]die Erde gehen,
[C]Es soll uns [A]an nichts fehlen.
[F]Wehe dem, bei de[G]m ich's anders sehe,
[C]Leert Alkohol - [A]Ressourcen,
[F]Trinkt teuren [G]Wein,
[C]Die Tranen werden [A]trocknen,
[F]Die Nutten sollen [G]schrein.
Break (2x)
| C A | F G | -> Guitar 1
 
 e|-------------------------|------------------------|
 B|--------------8----------|-8----------------------|
 G|--9--9-9-9--9----9-7--9--|----9-7--9--10--9--7-9--| -> Guitar 2
 D|-------------------------|------------------------|
 A|-------------------------|------------------------|
 E|-------------------------|------------------------|

Strophe 2:
[C]Die Erde ist 'ne [A]Scheibe,
[F]Wir stehen nah am [G]Rand,
[C]Donner und [A]Blitzen,
[F]In Frankreich, England und Deutschland
Kehrreim:
[C]Wir, [A]wir sind nicht [F]ohne Grund und [G]nicht vergebens,
[C]Auf der [A]Uberholspur [F]des Le[G]bens.
[C]Wir, wir u[A]nd unser[F]e Sorte,[G]
[C]klingeln Sturm[A]
An [F]der Himmel[G]spforte.
Break (2x)
| C A | F G |
 
 e|-------------------------|------------------------|
 B|--------------8----------|-8----------------------|
 G|--9--9-9-9--9----9-7--9--|----9-7--9--10--9--7-9--|
 D|-------------------------|------------------------|
 A|-------------------------|------------------------|
 E|-------------------------|------------------------|

Strophe 3:
[C]Das Leben ge[A]ht vorbei,
[F]Geniese alles, [G]was du tust,
[C]Denn schlecht[A]en Menschen,
[F]Geht es immer g[G]ut.
[C]Konnen wir nicht [A]alles haben,
[F]Dann wollen wir [G]nichts,
[C]Erbarmen dem,[A]
[F]Der mit dem Leben[G] bricht.
Break (2x)
| C A | F G |
 
 e|-------------------------|------------------------|
 B|--------------8----------|-8----------------------|
 G|--9--9-9-9--9----9-7--9--|----9-7--9--10--9--7-9--|
 D|-------------------------|------------------------|
 A|-------------------------|------------------------|
 E|-------------------------|------------------------|

Strophe 4:
[C]Immer auf der [A]linken Spur,
[F]Die Blinker links [G]gesetzt,
[C]Donner und [A]Blitzen
[F]Fur Punkrocker und Skinheads.
Kehrreim:
[C]Wir, [A]wir sind nicht [F]ohne Grund und [G]nicht vergebens,
[C]Auf der [A]Uberholspur [F]des Le[G]bens.
[C]Wir, wir u[A]nd unser[F]e Sorte,[G]
[C]klingeln Sturm[A]
An [F]der Himmel[G]spforte.
[C]Wir, [A]wir sind nicht [F]ohne Grund und [G]nicht vergebens,
[C]Auf der [A]Uberholspur [F]des Le[G]bens.
[C]Wir, wir [A]und unse[F]re Sorte,[G]
[C]klingeln Sturm[A]
An [F]der Himmel[G]spforte.

Important: The song above is NOT stored on the Chordie server. The original song is hosted at www.azchords.com. Chordie works as a search engine and provides on-the-fly formatting. Chordie does not index songs against artists'/composers' will. To remove this song please click here.

Text color:
Chord color:
Chord grids: 
Font size:    
Page size: 

A C F G
Rate #1 of 1 versions

Login - add to songbook

SHARE PAGE  



You need to log in to post comments