Guitar Tabs, Chords and Lyrics
Major upgrade!! After one year development the new version of Chordie is now online! Please give feedback.


She Used to Be Mine  Brooks & Dunn

By Brooks & Dunn
Wrote by Ronnie Dunn
Chords: C(add9) G Bm C
 
 e---------------0----------3--------------2------------0------|
 B---------------3----------0--------------3------------1------|
 G---------------0----------0--------------4------------0------|
 D---------------2----------0--------------4------------2------|
 A---------------3----------2---------------------------3------|
 E--------------------------3----------------------------------|

[G/D] [D] [Am] [G/B] [Am7]  
 
 e-----3-------2----------0-----------3-------------0-------|
 B-----0-------3----------1-----------0-------------1-------|
 G-----0-------2----------2-----------0-------------0-------|
 D-----0-------0----------2-----------0-------------2-------|
 A------------------------------------2-------------0-------|
 E----------------------------------------------------------|

(Go slowly listen to the album for the best results.
Just follow along with it and you should be fine if you get lost.)
Intro: 2x C(add9) G
 
 e-----------------------------0-----------------------3----------------------|
 B---------------------2------2-----------------------0-----------------------|
 G-------------------0------0-------------------0----0------------------------|
 D-----------------2---------------------------0------------------------------|
 A----------------3---------------------------2-------------------------------|
 E-------------------------------------------3--------------------------------|

1st Verse C(add9)
 
 e------------------------------------------------------------0---------|
 B-------------------2---------------------------------------2----------|
 G------------------0---------------------------------------0-----------|
 D-----------------2----------------------------------------------------|
 A----------------3-----------------------------------------------------|
 E----------------------------------------------------------------------|

She looks so good movin' cross the dance floor
[G]  
 
 e ---------------------------------------------------------3--|
 B--------------------------------------------------------0----|
 G---------------------0--------------------------------0------|
 D-------------------0-----------------------------------------|
 A-----------------2-------------------------------------------|
 E---------------3---------------------------------------------|

better than the day she left me
(Countinue tab until the line of the first Bm.)
Arm in [C(add9)]arm with somebody new
holdin' hands and [G]laughin' like we used to.
Bm C(add9) (Fill 1)
I got my best smile on, but its no disguise.
[Bm] It Don't hide the [D]pain in these eyes.
Chours:
I did her [G]so wrong for so lon[Bm]g
turned my [C]back on her love now shes l[G/D]ong go[D]ne
I did my [G]part to break her [Bm]heart
She walked [C]out on me and tore my [G]world apart
She used to me m[Am]ine. [Bm] [C] Oh she used to be [G]mine
Solo C G
2nd Verse
(Countinue tab just as in first Verse)
It's takin [C(add9)]every bit of strength that I have
To keep a [G]hurt look off my face
I can't keep from[C(add9)] lookin' back over my shoulder
At the [G]lucky man takin' my place
Bm C(add9) (Fill 1)
Oh if it weren't for my pride I'd probly take off runnin'
[Bm] I guess what I'm feeling is [D]what I got comin'
Chours
Guitar Solo: C Bm D
Chours w/ending
Oh I did her [G]so wrong for [Bm]so long
turned my [C]back on her love now shes [G/D]long g[D]one
I did my [G]part to break her [Bm]heart
She walked [C]out on me and tore my[G] world apart
Am Bm C(add9) let fade
She used to me mine. Oh she used to be mine
Outro: G/B Am7 G
Fill 1
[C(add9)]  
 
 e -----------------------------------0----|
 B---------------------2-----------2-------|
 G-------------------0-----------0---------|
 D-----------------2-----------------------|
 A----------------3------------------------|
 E-----------------------------------------|


Important: The song above is NOT stored on the Chordie server. The original song is hosted at www.azchords.com. Chordie works as a search engine and provides on-the-fly formatting. Chordie does not index songs against artists'/composers' will. To remove this song please click here.

Text color:
Chord color:
Chord grids: 
Font size:    
Page size: 

Am Am7 Bm C C(add9) D G G/B G/D
Rate #1 of 1 versions

Login - add to songbook

SHARE PAGE  



You need to log in to post comments