Guitar Tabs, Chords and Lyrics
Major upgrade!! After one year development the new version of Chordie is now online! Please give feedback.


Tequila Town  Brooks & Dunn

 



Tequila Town - Brooks & Dunn
 
 ----------------------------

INTRO: G G D A A
[D]Left Laredo with the [Bm]sun in my eyes, [G]broken heart and a [D]bloodshot sky
[G]Been running since she [D]left me alone, [Em]way up north in [A]San Antone
[D]Days get long but I [Bm]don't get far, [G]spent last night in some [D]low life bar
[G]Found her memory in some [D]Mezcal haze, [Em]lost my mind while the [A]guitar plays[Asus4] [A]
CHORUS: I'm gonna [G]carry this burden [A]way out west
[D]Find a way to lay this [G]hurt to rest
[D]Live it up 'till [Em]I live her down
[A]Lost in Tequila [G]Town[G] [D] [A]
[D]Left her standing in a [Bm]tear-stained dress, [G]cursed the day that [D]I confessed
[G]Wayward sins of a [D]mortal man, [Em]watched the ring come [A]off her hand
[D]Looking back on [Bm]all I've lost, [G]price I've paid ain't [D]worth the cost
[G]I'll run this road [D]until it ends and maybe [Em]find my way back to [A]her again[Asus4] [A]
CHORUS: I'm gonna [G]carry this burden [A]way out west
[D]Find a way to lay this [G]hurt to rest
[D]Live it up 'till [Em]I live her down
[A]Lost in Tequila [G]Town[G] [D] [D] [G] [G] [D] [A]
CHORUS: I'm gonna [G]carry this burden [A]way out west
[D]Find a way to lay this [G]hurt to rest
[D]Live it up 'till [Em]I live her down
[A]Lost in Tequila [G]Town[G] [D]
[D]Lost in Tequila [G]Town[G] [D]
Here are some lead parts I've managed to figure out from the original
recording. Perhaps some parts are not 100% exactly like they're supposed
to be but they're pretty damn close anyway...
(Intro)
[G] [D] [A] [D]  
 
 -----------------------------------------------------------------------------|
 -----T---333-2-----------333-2-----------------------------------------------|
 ---------A---------2-4-------------2--------H-P------------------------------|
 -------------B---------------------------4-----4-5-4-2------H--2--------H--2-|
 -0-------------------------------------------------------------0-2---/4----0-|
 -2---------------------------------------------------------------------------|
 -----------------------------------------------------------------------------|

(After the first chorus)
[G] [D] [A] [D]  
 
 -----------------------------------------------------------------------------|
 -----T------------------333-2------------------------------------------------|
 -----------------------------------------------------------------------------|
 -A------------------------2---------H-P--------------------------------------|
 -----B-----------5--------------4------4-5-4-2-------------------------------|
 -----------------------------------------------------------------------------|
 ---------2-5-----------------------------------H-P---5-----------------------|
 ---------333--------------------------------------5-7-5----------------------|
 -----------------------------------------------------------------------------|

(Solo)
[G] [D] [G] [D]  
 
 --------------------------------------------------------------------------10-|
 --9--T------------------333-2-----------333-2--------333-2-------------------|
 7-10--10---------------------------------------------------------------------|
 -A------------------------2---------------2-4----------2------------7-9------|
 -----B-----------5--------------4----------------------------4-------7-------|
 -----------------------------------------------------------------------------|
 ---------2-5-----------------------------------------------------------------|
 ---------333-----------------------------------------------------------------|
 -----------------------------------------------------------------------------|

...and then down to A
(Ending)
[G] [D]  
 
 -----------------------------------------------------------------------------|
 -----T------------------333-2------------------------------------------------|
 -----------------------------------------------------------------------------|
 -A------------------------2--------------------------------------------------|
 -----B-----------5--------------4--------------------------------------------|
 -----------------------------------------------------------------------------|
 ---------2-5-----------------------------------------------------------------|
 ---------333-----------------------------------------------------------------|
 -----------------------------------------------------------------------------|

Well, like I said, there may be some mistakes but hopefully you got the general
idea...

Important: The song above is NOT stored on the Chordie server. The original song is hosted at www.azchords.com. Chordie works as a search engine and provides on-the-fly formatting. Chordie does not index songs against artists'/composers' will. To remove this song please click here.

Text color:
Chord color:
Chord grids: 
Font size:    
Page size: 

A Asus4 Bm D Em G
Rate #1 of 3 versions

Jango Player

Login - add to songbook

SHARE PAGE  




You need to log in to post comments