Guitar Tabs, Chords and Lyrics
Server problems seems to be fixed. Chordie has been experiencing problems with songs disappearing. These issues now seems to be fixed, but still verifying the fix. If you find anything strange, please email admin@chordie.com.


All the Diamonds in the World  Bruce Cockburn

Intro
Q=144
[C] [Cadd4] 
[4/4] Gtr I (Ac. Gtr. w/ capo 5th fret)
Q Q E E E E E E E E E E E E Q E E E E E E E E E E E E E E
 
 |----0----------|---0-------------|----------0-----|-------0----------|
 |---------1-----|-------1---------|----1-----------|-1---------1------|
 |-0-----------0-|-----------0---0-|------0-------0-|---0-----------0--|
 |----2------2---|-----2-------2h==|=3--3-------3---|-----3-------3----|
 |-3-----3-------|-3-------3-------|-3------3-------|-3-------3--------|
 |---------------|-----------------|----------------|------------------|

Q Q Q Q Q Q Q Q Q Q Q Q Q Q Q Q
[C]Q Q E E E E E E E E E E E E [Cadd4]Q E E E E E E E E E E E E E E
 
 |-------------0-|-----------------|----------0-----|-------0---------||
 |----1----------|---1-------1-----|----1-----------|-1---------1-----||
 |---------0-----|-------0-------0-|------0-------0-|---0-----------0-||
 |----2------2---|-----2-------2h==|=3--3-------3---|-----3-------3---||
 |-3-----3-------|-3-------3-------|-3------3-------|-3-------3-------||
 |---------------|-----------------|----------------|-----------------||

Q Q Q Q Q Q Q Q Q Q Q Q Q Q Q Q
1st - 3rd Verses
$
[C]Q Q E E E E [Cadd4]E E E E [C]Q Q [Am]Q Q [G/B]Q Q [C]Q E E E E Q
 
 ||----------------|---------------|-------------|-0--------0-----|
 ||o-1-------1-----|---1-----1-----|-1-----3-----|----------1-----|
 ||--------------0-|-------0-------|-------------|------0---------|
 ||-----2------2---|-----3------2--|----2-----0--|----2-------0---|
 ||o-3-----3-------|-3-------3-----|-0-----2-----|-3------3-------|
 ||----------------|---------------|-------------|----------------|

[Fmaj7]Q E E E E E E Q E E E E E E Q E E E E E E [Fsus2]E E E E E E E E
 
 |-0--------------|-0--------0-----|-0--------0-----|-----------------|
 |-1--------1-----|-1--------1-----|-1--------1-----|---1-------1-----|
 |------2-------2-|------2-------2-|------2-------2-|-------0-------0-|
 |----3-------3---|----3-------3---|----3-------3---|-----3-------3---|
 |----------------|----------------|----------------|-----------------|
 |-1------1-------|-1------1-------|-1------1-------|-1-------1-------|

To Coda
[Am]Q E E E E E E [G]Q E E E E Q [Fsus2]Q E E [G/B]Q Q [D/F#]Q E E Q E E
 
 |----------------|---------------|-1------0-----|-2---------------|
 |-1------0h1-----|-3------1h3----|-1------0-----|-3------3--------|
 |------2-------0-|------0--------|------0-------|------2----2-----|
 |----2-------2---|----0-------0--|----3------0--|-0--0--------0---|
 |-0------0-------|---------------|-0------2-----|-----------------|
 |----------------|-3------3------|--------------|--------2--------|

[C/G]Q E E E E E E Q E E E E E E [G]Q E E E E E E Q E E E E E E
 
 |-0--------0-----|-0--------0-----|----------------|--------------0-|
 |-1--------1-----|-1--------1-----|-3--------3-----|-3------3p1-3---|
 |------0-------0-|------0-------0-|------0-------0-|------0---------|
 |----2-------2---|----2-------2---|----0-------0---|----0-------0---|
 |----------------|----------------|----------------|----------------|
 |-3------3-------|-3------3-------|-3------3-------|-3------3-------|

Q Q Q Q
1.
[Am]Q E E E E E E [G]Q E E E E E E [Am]Q E E E E E E Q E E E E E E
 
 |----------------|----------------|----------------|-----------------||
 |-1------1p0-1h3-|-3------0---0-1-|------1---1-0---|------1---------o||
 |------2---------|------0---2-----|-2------------0-|-2------------0--||
 |----2-------2---|----0-------0---|----2-------2---|----2-----0------||
 |-0------0-------|----------------|-0------0-------|-0------0---2---o||
 |----------------|-3------3-------|----------------|-----------------||

Q Q Q Q Q Q Q Q Q Q Q Q Q Q Q Q
Bridge
2.
[Am]Q E E E E E E Q E E E E Q [Dm]E E E E E E E E Q E E E E E E
 
 |----------------|----------0----||-1-----0-------1-|-1--------0-----|
 |------1---1-0---|------1--------||---3-------3-----|------3-------3-|
 |-2------------0-|-2-------------||-----2-------2---|----2-------2---|
 |----2-------2---|----2-------0--||-0-------0-------|-0------0-------|
 |-0------0-------|-0------0------||-----------------|----------------|
 |----------------|---------------||-----------------|----------------|

Q Q Q Q Q Q Q Q
[G9] [Am] 
[E] [E] [E] [E] [E] [E] [E] [E] [E] [E] [E] [E] [E] [E] [E] [E] [E] [E] [E] [E] [E] [E] [E] [E] [E] [E] [E] [E] [E] [E] [E] [E]  
 
 |-1-----0-------1-|-------1-----0---|---------------0-|-----------------|
 |-----------3-----|-----------------|-------1---------|-----1p0---0-----|
 |---2---0-------2-|---2-------0---0-|---2-------2-----|---2-----------2-|
 |-----0-----3-----|-----0-------0---|-----2-------2---|-----2-------2---|
 |-------------0---|-3---------------|-0-------0-------|-0-------0-------|
 |-3-------3-------|---------3-------|-----------------|-----------------|

Q Q Q Q Q Q Q Q
[Am7]E E E E E E E E E E E E E E Q [Dm]E E E E E E E E Q E E E E Q
 
 |-3-------------3-|-----------3----|-1-----0-------1-|----------1----|
 |---1p0-----0h1---|---1------------|---3-------3-----|------3--------|
 |-------2---------|-------2--------|-----2-------2---|----2-------2--|
 |-----2-------2---|-----2-------2--|-0-------0-------|-0------0------|
 |-0-------0-------|-0-------0------|-----------------|---------------|
 |-----------------|----------------|-----------------|---------------|

Q Q Q Q Q Q Q Q
[G9] [Am] 
[E] [E] [E] [E] [E] [E] [E] [E] [E] [E] [E] [E] [E] [E] [E] [E] [E] [E] [E] [E] [E] [E] [E] [E]  
 
 |-1-----0-------1-|-------1-----0---|---------------0-|
 |-----------3-----|-----------------|-------1---------|
 |---2---0-------2-|---2-------0---0-|---2-------2-----|
 |-----0-----3-----|-----0-------0---|-----2-------2---|
 |-------------0---|-3---------------|-0-------0-------|
 |-3-------3-------|---------3-------|-----------------|

Q Q Q Q
D.S. al Coda
[G] 
[E] [E] [E] [E] [E] [E] [E] [E] [E] [E] [E] [E] [E] [E] [E] [E] [E] [E] [E] [E] [B]  
 
 |-----------------|-----0-----------|--------------||
 |-----1p0---0-----|-1h3---1---0-----|---0-----3----||
 |---2-----------2-|---------------0-|--------------||
 |-----2-------2---|-----2-------2---|-------0------||
 |-0-------0-------|-0-------0-------|-----0--------||
 |-----------------|-----------------|-3------------||

Q Q Q Q Q Q Q Q Q Q H
&
[C/G]Q E E E E E E Q E E E E E E [G]Q E E E E E E Q E E E E Q
 
 |-0--------0-----|-0--------0-----|----------------|---------------|
 |-1--------1-----|-1--------1-----|-3--------3-----|-3--------3----|
 |------0-------0-|------0-------0-|------0-------0-|------0--------|
 |----2-------2---|----2-------2---|----0-------0---|----0-------0--|
 |----------------|----------------|----------------|---------------|
 |-3------3-------|-3------3-------|-3------3-------|-3------3------|

[Am]Q E E E E E E [G]Q E E E E Q [Fsus2]Q E E [G/B]Q Q [D/F#]Q E E E E Q
 
 |----------------|---------------|-1------0-----|-2-------------|
 |-1------0h1-----|-3------1h3----|-1------0-----|-3------3------|
 |------2-------0-|------0--------|------0-------|------2---2----|
 |----2-------2---|----0-------0--|----3------0--|-0--0-------0--|
 |-0------0-------|---------------|-0------2-----|---------------|
 |----------------|-3------3------|--------------|--------2------|

Q Q Q Q Q Q Q Q
[C/G]Q E E E E E E Q E E E E E E [G]Q E E E E E E Q E E E E E E
 
 |-0--------0-----|-0--------0-----|----------------|--------------0-|
 |-1--------1-----|-1--------1-----|-3--------3-----|-3------3p1-3---|
 |------0-------0-|------0-------0-|------0-------0-|------0---------|
 |----2-------2---|----2-------2---|----0-------0---|----0-------0---|
 |----------------|----------------|----------------|----------------|
 |-3------3-------|-3------3-------|-3------3-------|-3------3-------|

Q Q Q Q
[Am] [G] |-3-|[Am]
Q E E E E E E Q E E S S S E E E Q E E E E Q W +W
 
 |----------------|--------------------|------------0--|-^5--------|-(5)----*|
 |-1------1p0-1h3-|-0------0h1p0---0h1-|------1--------|-^1--------|-(1)----*|
 |------2---------|------0-------2-----|-2--------2----|-^2--------|-(2)----*|
 |----2-------2---|----0-----------0---|----2-------2--|-^2--------|-(2)----*|
 |-0------0-------|--------------------|-0------0------|-^0--------|-(0)----*|
 |----------------|-3------3-----------|---------------|-----------|--------*|

Q Q Q Q Q Q Q Q Q Q Q Q

Important: The song above is NOT stored on the Chordie server. The original song is hosted at www.azchords.com. Chordie works as a search engine and provides on-the-fly formatting. Chordie does not index songs against artists'/composers' will. To remove this song please click here.

Text color:
Chord color:
Chord grids: 
Font size:    
Page size: 

Am Am7 B C C/G Cadd4 D/F# Dm E Fmaj7 Fsus2 G G/B G9
Rate #1 of 1 versions

Login - add to songbook

SHARE PAGE  




You need to log in to post comments