Guitar Tabs, Chords and Lyrics
Major upgrade!! After one year development the new version of Chordie is now online! Please give feedback.


Jungleland  Bruce Springsteen

[C] [Em7] [F] [Am] [Dm] [F] [G] [Am] [Em7]  
 
 --12--10--|----p--------|------15--|--17--19--|--20--17------20--22--|
 ----------|--13<11------|-/15------|----------|----------20----------|
 ----------|---------12--|-s--------|----------|----------------------|
 ----------|-------------|----------|----------|----------------------|
 ----------|-------------|----------|----------|----------------------|
 ----------|-------------|----------|----------|----------------------|

[Dm] [Am] [Dm] [Dm] [G] [F] [F]  
 
 --24--22--20------|------15--|------19--|--22vvvvvvv|vvvvvvv---------|
 --------------20--|-/15------|-/15------|-----------|----------------|
 ------------------|-s--------|-s--------|-----------|----------------|
 ------------------|----------|----------|-----------|----------------|
 ------------------|----------|----------|-----------|----------------|
 ------------------|----------|----------|-----------|----------------|

| 4x |
| C Em7 | F G |
The r[C]angers had a [Em7]homecomi[F]ng [G]in [C]Harlem late [Em7]last [F]night
An[G]d the [C]Magic Rat drove his s[Em7]leek mac[F]hin[G]e ov[C]er the Jersey st[Em7]ate line[F] [G]
Ba[C]refoot girl sitting on the h[Em7]ood of a D[F]odge
Drinking w[G]arm beer i[C]n the soft sum[Em7]mer rain
The Rat pu[Dm]lls into town ro[Am]lls up his pants[Dm]
Am Dm Am Dm G | C Em7 | F G | C Em7 | F G |
Together they take a stab at romance and disappear down Flamingo Lane
The[C] Maximum[Em7] Lawman[F] run down Flamin[G]go ch[C]asing the Rat [Em7]and th[F]e baref[G]oot girl
[C]And the kids round here look j[Em7]ust li[F]ke s[G]hadows always q[C]uiet, holding[Em7] hands[G]
D[G]m A[C]m Dm Am [Em7]Dm [F] F C | [G]F | C |[C] F |[Em7] [F]
As we take our stand down in Jungleland
[C]The midnigh[G]t gang'[F]s assembled an[G]d [C]picked a rendezvous f[G]or [F]the night[G]
They'll [C]meet `neath that gi[G]ant [F]Exxon sign[G] t[C]hat brings this fair ci[G]ty l[F]ight
[G]Man ther[C]e's an opera out on the [G]Turnpi[F]ke
[G]There's a [C]ballet being fought out in[G] the a[F]lley
[G]Until [C]the local co[G]ps, [F]Cherry Top[G]s, [C]rips this hol[G]y n[F]ight
The [Dm]street's alive[C] as secret [F]debts are p[G]aid
 
 |---5-------5-------------------------------------------------|
 |---6-------6------5-----5----10----10------12---12-----------|
 |---7-------7------5-----5----10----10------12---12-----------|
 |---7-------7------5-----5----10----10------12---12-----------|
 |---5-------5------7-----7----8-----8-------10---10-----------|
 |-------------------------------------------------------------|

[Dm] [C] [F] [G] 
Kids [Dm]flash guitars [C]just like s[F]witch-blade[G]s [Dm]hustling for the [C]record machin[F]e[G]
The [Bb]hungry and the hunted [C]explo[Dm]de into rock'n'roll bands
Bb C Dm F C | F | C | F |
That face off against each other out in the street down in Jungleland
| 4x | 3x |
| C G | F G | C G F | F G | C G F | F |
[C] [G] [F] [G] [C] [G] [F] [G] [C]  
 
 --------------------|--------------------|--------------------|--------------8--10--8-|
 -/8-8-8-8--8-8-8-8--|-/8-8-8-8--8-8-8-8--|-/8-8-8-8--8-8-8-8--|-/8-8-8-8--10----------|
 -s------------------|-s------------------|-s------------------|-s---------------------|
 --------------------|--------------------|--------------------|-----------------------|
 --------------------|--------------------|--------------------|-----------------------|
 --------------------|--------------------|--------------------|-----------------------|

[G] [F] [G] [C] [G] [F] [G]  
 
 -10/12vvvvv--|--13--12--------------|-------------------------|-------------------12--|
 ---b---------|----------13----------|------13vvvv--12-13------|-----------12--13------|
 -------------|--------------12------|---------------------14vvvv--12--14--------------|
 -------------|------------------15--|--14---------------------|-----------------------|
 -------------|----------------------|-------------------------|-----------------------|
 -------------|----------------------|-------------------------|-----------------------|

[C] [F] [G] [C] [F] [G] [C]  
 
 --12------|------------------|------12------|--17--15--15--13--|------12------|
 ------13--|--18--17--17--15--|--13------13--|--18--17--17--15--|--13------13--|
 ----------|------------------|--------------|------------------|--------------|
 ----------|------------------|--------------|------------------|--------------|
 ----------|------------------|--------------|------------------|--------------|
 ----------|------------------|--------------|------------------|--------------|

[F] [G] [C] [F]  
 
 |--17--15--15--13--|------12------|--20vv-|
 |--18--17--17--15--|--13------13--|-------|
 |------------------|--------------|-------|
 |------------------|--------------|-------|
 |------------------|--------------|-------|
 |------------------|--------------|-------|

[Bb]In the parking lot the visionaries d[F]ress in the latest rage
[C]Inside the backs[Gm]treet girls are da[Bb]ncing to the records that the [F]D.J. play[C]s
[Bb]Lonely-hearted lovers struggle in dark corners
[F]Desperate as the night moves on[C], j[Gm]ust a look and a [Bb]whisper, and they're [C]gone
| Eb | Eb | Ab | Eb | Ab | Bb | Eb | Ab | Eb | Ab | Ab | Bb | Eb Bb | Bb | Bb |
| Eb | Eb | Cm Bb | Cm Bb | Ab Bb | Ab Bb | Eb | Bb | Bb | Ab | Cm Bb Cm | G7sus |
| Ab Bb | Eb Bb | Eb Bb | Cm Bb | Cm Bb | Ab Bb | Ab Bb | Eb Bb | Ab Bb |
Bene[Eb]ath the c[Bb]ity two h[Bb]earts beat[Bb]
Soul [Cm]engines running through a [Bb]night so tend[Cm]er [Bb]in a [Abmaj7]bedroom l[Bb]ocked
In w[Abmaj7]hispers of s[Bb]oft ref[Eb]usal and t[Bb]hen sur[Ab]rende[Bb7]r in the t[Eb]unnels uptown
The Rat's own dream guns him down as shots [Cm]echo down [C9sus]them hallways in the nigh[Cm]t[C9sus]
No one [Abmaj7]watches when the ambu[Bb]lance pulls awa[Abmaj7]y[Bb]
Or as the [Cm]girl shuts out the [C]bedroom light[Cm]
[G]Outside the [Dm]street's on f[C]ire in a [F]real death [G7sus]waltz
Be[G]tween fl[Dm]esh and what's f[C]antas[F]y [G7sus]and th[G]e p[Dm]oets down [C]here
Don't write [F]nothing at all,[G7sus] they j[G]ust [Dm]stand back and [C]let it all[F] be[G7sus] [G]
[G]And in the q[Bb]uick of the night they reach for their moment
And try to make an honest stand [Dm]but they wind up wounded[Bb], not even dead
Ton[Dm7]ight in J[F]unglelan[C]d
verse: piano transcribed for 6 string guitar
 
 |--------------------------------------------------------|
 |----5-------5------3--1-------1------0--1--3------------|
 |.--------5------4----------2---------------------------.|
 |.-----5------5----------3--------3---------------------.|
 |--------------------------------------------------------|
 |--------------------------------------------------------|


Important: The song above is NOT stored on the Chordie server. The original song is hosted at www.azchords.com. Chordie works as a search engine and provides on-the-fly formatting. Chordie does not index songs against artists'/composers' will. To remove this song please click here.

Text color:
Chord color:
Chord grids: 
Font size:    
Page size: 

Ab Abmaj7 Am Bb Bb7 C Cm Dm Dm7 Eb Em7 F G G7sus Gm
Rate #1 of 4 versions

Jango Player

Login - add to songbook

SHARE PAGE  



You need to log in to post comments