Guitar Tabs, Chords and Lyrics
Update 25:10. 13:00. Site is back up running again. Songbooks are recovered. Woring on getting search back up..


Streets of Fire  Bruce Springsteen



| A F#m | A F#m
When the [A]nigth's [F#m]quiet and you d[A]on[F#m]'t care anymore,
And your e[A]yes[F#m] are tired and there's [A]someone a[F#m]t your door
D Bm7 D Bm7 A F#m | A F#m |
And you realize you wanna let go
And the [E4]weak l[E]ies and the c[E4]old walls you e[E]mbrace
Eat at your [D]ins[Bm7]ides and le[D]ave you face[Bm7] to face with
[A]Streets of [F#m]fire, [A]streets of [F#m]fire, [A]streets of [F#m]fire, [A]streets of [F#m]fire
I'm w[A]ander[F#m]ing, a l[A]oser d[F#m]own these tracks
I'm d[A]yin[F#m]g, but g[A]irl I can'[F#m]t go back
D Bm7 D Bm7 A F#m | A F#m |
'Cause in the darkness I heard somebody call my name
And when you r[E4]eali[E]ze [E4]how they tr[E]icked you this time
And it's a[D]ll l[Bm7]ies but I'm s[D]trung out on th[Bm7]e wire
In these [A]streets of [F#m]fire, [A]streets of [F#m]fire, [A]streets of [F#m]fire, [A]streets of [F#m]fire
[A] [F#m] [A] [F#m] [A] [F#m] [A] [F#m]  
 
 ---------------|------------|-----7-7>9vvv-|----------------------5-|
 ---------------|------------|--------b-----|--------5>7vv---5>7vv---|
 --2--2-4>5vvv--|--2---------|--2-----------|--2--2---h-------h------|
 --2-----b------|--2-2>4vvv--|--2-----------|--2--2------------------|
 ---------------|-----h------|--------------|------------------------|
 ---------------|------------|--------------|------------------------|

[D] [Bm7] [D] [Bm7] [A] [F#m]  
 
 ----------------------|------------------------------------------------|--------------------------|
 12vv-10-------------10|12>10---------10-12<14>12>10--17<19>17>14----14-|17<18-17<18-17<18vv----14-|
 -------11--/11-9<11---|------11-9-11------b--r--p------b--r--p---16----|--------------------16----|
 -----------s----h-----|------------------------------------------------|--------------------------|
 ----------------------|------------------------------------------------|--------------------------|
 ----------------------|------------------------------------------------|--------------------------|

[A] [F#m] [E4] [E] [E4] [E]  
 
 -----------------------------|---------------------|-----------------------------|
 17<18-17<18-17<18vv-17-19-17-|-21>17vv----------17-|-17<19-17-17-17<19-17<19-17<-|
 -----------------------------|---r-----------------|---b-----------b-----b-----b-|
 -----------------------------|---------------------|-----------------------------|
 -----------------------------|---------------------|-----------------------------|
 -----------------------------|---------------------|-----------------------------|

[D] [Bm7] [D] [Bm7] [A] [F#m] [A] [F#m]  
 
 ---18----------|----------------------------------------|-----------|----------------|
 19----19<17----|---------12<14>12---17<19>17---12<14>12-|-----------|-------5>7<5vvv-|
 --------rb-----|9<11>9-----b--r-------b--r-------b--r---|-4>6<4-2---|-4>6<4--b-rb----|
 -------------0-|-b--r--0----------0----------0----------|--b-rb---4-|--b-rb----------|
 ---------------|----------------------------------------|---------4-|----------------|
 ---------------|----------------------------------------|-----------|----------------|

[A] [F#m] [A] [F#m]  
 
 -----------|-------|
 -----------|-------|
 -4>6<4-2---|-------|
 --b-rb---4-|-4-----|
 ---------4-|-4-----|
 -----------|-------|

I [A]live [F#m]now, o[A]nly with st[F#m]rangers
I t[A]alk [F#m]to onl[A]y str[F#m]angers
D Bm7 D Bm7 A F#m | A F#m |
I walk with angels that have no place
And d[E4]on't look in my [E]face d[E4]on't, d[E]on't
Come aro[D]und [Bm7]my place ├[D]?┬┤cause I don[Bm7]'t know why
[A]Streets of [F#m]fire, [A]streets of [F#m]fire, [A]streets of [F#m]fire, [A]streets of [F#m]fire (to fade out)
[A] [F#m] [D] [Bm7] [E4] [E]  
 
 -0--2---2--2----0--0-
 -2--2---3--3----0--0-
 -2--2---2--2----2--1-
 -2--4---0--4----2--2-
 -0--4------2----2--2-
 ----2-----------0--0-

Thanks to Antti Pekkanen for his hints on the solo.

Important: The song above is NOT stored on the Chordie server. The original song is hosted at www.azchords.com. Chordie works as a search engine and provides on-the-fly formatting. Chordie does not index songs against artists'/composers' will. To remove this song please click here.

Text color:
Chord color:
Chord grids: 
Font size:    
Page size: 

A Bm7 D E E4 F#m
Rate #1 of 5 versions

Login - add to songbook

SHARE PAGE  




You need to log in to post comments