Guitar Tabs, Chords and Lyrics
Server problems seems to be fixed. Chordie has been experiencing problems with songs disappearing. These issues now seems to be fixed, but still verifying the fix. If you find anything strange, please email admin@chordie.com.


All Our Songs  Built to Spill

Drums.
[E] [Em] [G] [D] [C]  
[E] [Em] [G] [D] [C] 
 
 E|----------------------------------------------------|
 B|-------------------------8-------10b12r10-8---------|
 G|--11r9-------7-9---9-7-9---------------------9-7-9--|
 D|----------------------------------------------------|
 A|----------------------------------------------------|
 E|----------------------------------------------------|

E x2
[E]You can see right into my m[Em]ind,
[G]If I could k[D]eep it tog[C]ether
[E]Someone's gotta look for you to f[Em]ind,
[G]It's all out[D] there some[C]where
[E]And all our s[Em]ongs,
[G]Back before I e[D]ven remem[C]ber
I like a[E]ll those old so[Em]ngs
[G]Sound like the've be[D]en here fo[C]rever
 
 E|-------------------------------------|
 B|-------------------------------------|
 G|-------------------------------------|
 D|-------------------------------------|
 A|----------2-----------2-----------3--|
 E|--0-0---0-----3-3---3-----0-0---0----|

G Em A C x2
2nd guitar
 
 E|--10\--------------------------12r10*--|
 B|--12\----------------------------------|
 G|--12\----------------------------------|
 D|--12\----------------------------------|
 A|--10\--effects.------------------------|
 E|---------------------------------------|

*tremolo pick
[G]Ah, when it's [Em]over, t[A]hen it's ove[C]r
Or so they s[G]ay we've been o[Em]ver this and we k[A]now that there's no other w[C]ay
And it's so h[G]ard to tell the face that never rang a b[Em]ell
It's like a l[A]ight bulb went out in my h[C]ead.
And now we se[G]ttle for this complicated meta[Em]phor
And leave the [A]simple truth un[C]said
[C]  
Guitar 1
 
 E|-------------------------------------|
 B|-------------------------------------|
 G|-------------------------------------|
 D|-------------------------------------|
 A|----------2-----------2-----------3--|
 E|--0-0---0-----3-3---3-----0-0---0----|

Guitar 2
 
 E|--(12)~~~~~~~`-----------------------|
 B|-------------------------------------|
 G|----(12)~~~~~~~~raise----------------|
 D|-------------------------------------|
 A|-------------------------------------|
 E|-------------------------------------|

[E]  
E Em G D C x4
Solo
 
 E|-------------------------------------------------------|
 B|-------------------------------------------------------|
 G|-------------------------------------------------------|
 D|-------------------------------------------------------|
 A|--/7--/\/\7----10-10--10--7-10------12b14-12b14-10-7\--|
 E|-------------------------------------------------------|

^Crazy slides and such here
 
 E|----------------------------------------12---------------------------|
 B|--10b12r10-8---------12h15p12h15-15b17-----17----15---12--10--10b12--|
 G|-------------9-------------------------------------------------------|
 D|---------------------------------------------------------------------|
 A|---------------------------------------------------------------------|
 E|---------------------------------------------------------------------|
 E|--10------------------------10----------------------------------------7-------7-------7------------|
 B|-----12-10----10-10b12---------12-10----10b12--------10b12------10b12---10b12---10b12------8-------|
 G|-----------12------------------------12------------------------------------------------------9-----|
 D|---------------------------------------------------------------------------------------------------|
 A|---------------------------------------------------------------------------------------------------|
 E|---------------------------------------------------------------------------------------------------|

[E]  
[E]All n[Em]ight we lis[G]tened to their se[D]cond re[C]cord
It had [E]all these s[Em]ongs
So[G]unded like we're [D]in this toge[C]ther
And I f[E]ound a pl[Em]ace
Wh[G]ere I know I'll al[D]ways be teth[C]ered.
And I k[E]new when I woke[Em] up
[G]Rock and roll will [D]be here for[C]ever.
 
 E|-------------------------------------|
 B|-------------------------------------|
 G|-------------------------------------|
 D|-------------------------------------|
 A|----------2-----------2-----------3--|
 E|--0-0---0-----3-3---3-----0-0---0----|

2nd guitar repeats
 
 E|--10\--------------------------12r10*--|
 B|--12\----------------------------------|
 G|--12\----------------------------------|
 D|--12\----------------------------------|
 A|--10\--effects.------------------------|
 E|---------------------------------------|

*tremolo pick
[G]Form a c[Em]loud,
make [A]all of your particles s[C]eperate and get together
[G]Rain on [Em]down,
[A]show everybody [C]what it means to get wet.
[G]Let's take d[Em]own a[A]ll the umbrellas
of a[C]ll of our enemies
[G]I'll be f[Em]ine,
in [A]Idaho, America [C]in the 21st century
2nd guitar heard in background eventually comes in.
[G] [Em] [A] [C]  
 
 E|-----------------------------------------|
 B|-----------------------------------------|
 G|-12121212--12121212--14141414--17171717--|
 D|-12121212--12121212--14141414--17171717--|
 A|-10101010--10101010--12121212--15151515--|
 E|-----------------------------------------|

[G]Oh yeah, that's [Em]right, I'[A]m sure I[C]'ll be al[G]rig[Em]ht.
[A]I'm sure I'll be a[C]lright
[G]I'm sure that I'll be a[Em]lright,
but I don't k[A]now,
I don't k[C]now.
[G]Oh, I'm sure, that I'll[Em] be alright,
but I don't k[A]now,
I don't know.[C]
I'm s[G]ure that you can smell the s[Em]pider
But did you k[A]now that thing was in your f[C]ace?
I'm s[G]ure that you can smell the s[Em]pider
But did you k[A]now that thing was in your f[C]ace?
G Em A C x2
(2nd guitar plays on higher octave 2nd time)
G Em A C repeats
end on G
 
 E|--------7--|--------12--|--------17-(20p17)--|
 B|--10b12----|--15b17-----|--20b22-------------|
 G|-----------|------------|--------------------|
 D|-----------|------------|--------------------|
 A|-----------|------------|--------------------|
 E|-----------|------------|--------------------|

Alternative
 
 E|-----------|------------|--------17-(20p17)--|
 B|--------12-|--------17--|--20b22-------------|
 G|--14b16----|--19b21-----|--------------------|
 D|-----------|------------|--------------------|
 A|-----------|------------|--------------------|
 E|-----------|------------|--------------------| 


Important: The song above is NOT stored on the Chordie server. The original song is hosted at www.azchords.com. Chordie works as a search engine and provides on-the-fly formatting. Chordie does not index songs against artists'/composers' will. To remove this song please click here.

Text color:
Chord color:
Chord grids: 
Font size:    
Page size: 

A C D E Em G
Rate #1 of 1 versions

Jango Player

Login - add to songbook

SHARE PAGE  




You need to log in to post comments