Guitar Tabs, Chords and Lyrics
Major upgrade!! After one year development the new version of Chordie is now online! Please give feedback.


Hearts Burst Into Fire  Bullet for My Valentine

 
 E|----------1-----1------1------1---------------------------|
 B|-----4------4------4-----4------4----------4---3/4--------|
 G|---3---3------3------3------3------3-----3---3------------|
 D|-1--------------------------------------------------------|
 A|---------------------------------------3------------------|
 E|----------------------------------------------------------|
 E|---------6------------------------------------------------|
 B|--4-3-4-----4-3-4-----------------------------------------|
 G|-------------------5--5\3-3-3--5-5--7-7--8-8--10-10-------|
 D|----------------------------------------------------------|
 A|----------------------------------------------------------|
 E|----------------------------------------------------------|
 E|-------------3---------------------------------------3--------3-4-3---3~------|
 B|--3h43h43h43--(x5)--3h43h43h43h6(x5)--3-3--4-4----------6-4-6------------4----|
 G|------------------------------------5------------3----------------------------|
 D|------------------------------------------------------------------------------|
 A|------------------------------------------------------------------------------|
 E|------------------------------------------------------------------------------|

[Cm]I'm coming home, I've been gone for far too l[G#]ong, do you re[F]member [G#]me at a[Cm]ll?
I'm leaving, have I f**ked things up a[G#]gain, I'm dreaming,[F] too much t[G#]ime without you s[Cm]pent
 
 -----------------------------------------------------------------------------------------------

Bridge:
It [G#]hurts, wounds so [F]sore, now I'm [D#]Torn, [G#]now I'm [Cm]Torn
[D#]I've been far [G#]away,[F] when I see your face my [Cm]hearts Burst [G#]into F[F]ire, [Cm]hearts Burst [G#]Into F[F]ire
 
 -----------------------------------------------------------------------------------------------

[Cm]Your not al[G#]one, and I know I'm far from [F]home, do You [G#]Remember Me At [Cm]All?
I'm Leaving, do you wait for me [G#]again? I'm Screaming,[F] no more [G#]days without you [Cm]spent
Bridge:
[Cm]My bed so [G#]cold so l[F]one[G#]ly, [Cm]no arms just [G#]sheets to [F]hol[G#]d me, [D#]has this world stopped [F]turning,
Are we [G#]forever to [F]be[G#] ap[Cm]art? Forever to be apart
Bridge:
(Outro)
[Cm]I'm coming home, I've been gone for far too [G#]long, I'm coming home, Do you r[F]emember [G#]me at [Cm]all?
Do you r[F]emember [G#]me at [Cm]all? I'm leaving, I'm screaming, I'm Dreaming.....[Cm]my hearts Bur[G#]st int[F]o Fire

Important: The song above is NOT stored on the Chordie server. The original song is hosted at www.azchords.com. Chordie works as a search engine and provides on-the-fly formatting. Chordie does not index songs against artists'/composers' will. To remove this song please click here.

Text color:
Chord color:
Chord grids: 
Font size:    
Page size: 

Cm D# F G#
Rate #1 of 8 versions

Login - add to songbook

SHARE PAGE  



You need to log in to post comments