Guitar Tabs, Chords and Lyrics
Major upgrade!! After one year development the new version of Chordie is now online! Please give feedback.


Tears Don't Fall  Bullet for My Valentine

Bullet For My Valentine - Tears Don't Fall (Acoustic)
(updated 01/04/2010, i've added the solo and some lead parts, there's a harmony
lead at the end of the solo but i left it out)
reasonbly good cam views u can learn from it.
tuning: C G C F A d (1 step down, dropped C)
 
 Intro: F - G - F - G - Am-G - F
 F - G - F - G - Am-G - Am

Verse:
[Am]With blood shot eyes I [F]watch you [G]sleeping
[Am]The warmth I feel beside me[F] is slowly [G]fading
Would she [Am]hear me if I [F]called her [G]name?
Would she [Am]hold me if she [F]knew my [G]shame?
Prechorus:
 
 d|--8-8-8-8-8-8-8-8-10-10-10-10-7-7-7-7---|
 A|---8-8-8-8-8-8-8-8--8--8--8--8-8-8-8-8--| x4
 F|----------------------------------------|
 C|----------------------------------------|
 G|----------------------------------------|
 C|----------------------------------------|

[Am]There's always something different going wrong
[F]The path I walk's in the [G]wrong direction
[Am]There's always someone f**king hanging on
[F]Can anybody help me [G]make things better?
Chorus:
 
 d|--8-8-8-8-8-8-8-8-7-7-7-7-7-7-7-7---| \
 A|---8-8-8-8-8-8-8-8-8-8-8-8-8-8-8-8--| |
 F|------------------------------------| |
 C|------------------------------------| |
 G|------------------------------------| |
 C|------------------------------------| |

|-- x2
 
 d|--8-8-8-8-8-8-8-8-7-7-7-7-10-10-7-7---| |
 A|---8-8-8-8-8-8-8-8-8-8-8-8--8--8-8-8--| |
 F|--------------------------------------| |
 C|--------------------------------------| |
 G|--------------------------------------| |
 C|--------------------------------------| /

[F]Your tears don't [G]fall
They crash around me[F]
Her conscience [G]calls the [Am]guilt[-]y to [G]come hom[F]e
[F]Your tears don't [G]fall
They crash around me[F]
Her conscience [G]calls the [Am]guilt[-]y to [G]come hom[Am]e
Verse:
[Am]The moments died, [F]I hear no [G]screaming
[Am]The visions left inside me[F] are slowly [G]fading
Would she [Am]hear me if I [F]called her [G]name?
Would she [Am]hold me if she [F]knew my [G]shame?
Prechorus:
[Am]There's always something different going wrong
[F]The path I walk's in the [G]wrong direction
[Am]There's always someone f**king hanging on
[F]Can anybody help me [G]make things better?
Chorus:
[F]Your tears don't [G]fall
They crash around me[F]
Her conscience [G]calls the [Am]guilt[-]y to [G]come hom[F]e
[F]Your tears don't [G]fall
They crash around me[F]
Her conscience [G]calls the [Am]guilt[-]y to [G]come hom[Am]e
Solo: Am - Am - F - G x4
(V) (V) (V=Vibrato)
 
 d|--------------------------------------------------------| (S=Slide)
 A|------------------------8-6h8p6-5-6--5---5--------------|
 F|----------5-7p5---5--------------------7----7-5-7--5-4--|
 C|-------s7-------7---7~----------------------------------|
 G|--(0)---------------------------------------------------|
 C|--------------------------------------------------------|

(V) (V) (V) (V)(V) (V)
 
 d|---------------------------------------------------------|
 A|---------------------------------------------------------|
 F|---------------------------------------------------------|
 C|--s7~--s9--s10--s5--3~---3h5p2~--0~----------------------|
 G|---------------------------------------------------------|
 C|---------------------------------------------------------|

(V)(V)(V)(V)
 
 d|------------------12----12---12--10----10----10----------|
 A|--s10-12-13---------13----13---13--12----12----12--------|
 F|------------12--------14----14-------12----12------------|
 C|---------------------------------------------------------|
 G|---------------------------------------------------------|
 C|---------------------------------------------------------|

(V) (V) (V)
 
 d|---------------------------------------------------------|
 A|--------------------8-6h8p6-5-6--5---5-------------------|
 F|-----------------------------------7----7-5-7--5-4-------|
 C|--s7~--9--10--5~-----------------------------------s7~---|
 G|---------------------------------------------------------|
 C|---------------------------------------------------------|

Would she [Am]hear me if I [F]called her [G]name?
Would she [Am]hold me if she [F]knew my [G]shame?
Prechorus:
[Am]There's always something different going wrong
[F]The path I walk's in the [G]wrong direction
[Am]There's always someone f**king hanging on
[F]Can anybody help me [G]make things better?
Chorus/Outro:
[F]Your tears don't [G]fall
They crash around me[F]
Her conscience [G]calls the [Am]guilt[-]y to [G]come hom[F]e
[F]Your tears don't [G]fall
They crash around me[F]
Her conscience [G]calls the [Am]guilt[-]y[G] [Am]
Guitar1
(V)
 
 d|-----------------------|
 A|------8~---------------|
 F|--7-9-----9-7-9-5~~----|
 C|-----------------------|
 G|-----------------------|
 C|-----------------------|

Guitar2
(V)
 
 d|-----------------------|
 A|-----------------------|
 F|-------9~--------------|
 C|--9-10----10-9-10-7~~--|
 G|-----------------------|
 C|-----------------------|

[F]Your tears don't [G]fall
They crash around me[F]
Her conscience [G]calls the [Am]guilt[-]y to [G]come hom[F]e
 
 F - G - F - G - Am-G - F

Your tears don't fall
End on F

Important: The song above is NOT stored on the Chordie server. The original song is hosted at www.azchords.com. Chordie works as a search engine and provides on-the-fly formatting. Chordie does not index songs against artists'/composers' will. To remove this song please click here.

Text color:
Chord color:
Chord grids: 
Font size:    
Page size: 

Am F G
Rate #1 of 13 versions

Login - add to songbook

SHARE PAGE  




You need to log in to post comments