Guitar Tabs, Chords and Lyrics
Server problems seems to be fixed. Chordie has been experiencing problems with songs disappearing. These issues now seems to be fixed, but still verifying the fix. If you find anything strange, please email admin@chordie.com.


Venom  Bullet for My Valentine

Verse 1 :
1 & 2 & 3 & 4 & 1 & 2 & 3 & 4 &
 
 e|---------------------------------|---------------------------------|
 B|---------------------------------|---------------------------------|
 G|---------------------------------|---------------------------------| x2
 D|-4-------4---5-------5----4------|-4---2-------2---0---0---2---2---|
 A|---------------------------------|---------------------------------|
 E|---------------------------------|---------------------------------|

* * * * * * * * * * * *
1 & 2 & 3 & 4 & 1 & 2 & 3 & 4 &
 
 e|---------------------------------|---------------------------------|
 B|---------------------------------|---------------------------------|
 G|---------------------------------|---------------------------------|
 D|-0-------0---2-------2----5------|-5---4-------4---0---0---2---2---|
 A|---------------------------------|---------------------------------|
 E|---------------------------------|---------------------------------|

* * * * * * * * * * * *
1 & 2 & 3 & 4 & 1 & 2 & 3 & 4 &
 
 e|---------------------------------|---------------------------------|
 B|---------------------------------|---------------------------------|
 G|--------------------------2------|-2------------------------2--2---|
 D|-0-------0---2-------2-----------|-----5-------5---4---4-----------|
 A|---------------------------------|---------------------------------|
 E|---------------------------------|---------------------------------|

* * * * * * * * * * * *
Do this 3 times and while you're doing the 3rd time there's this :
Why can't I just forget you ?
1 & 2 & 3 & 4 & 1 & 2 & 3 & 4 &
 
 e|-0~~~~~~~~~~~~~~~~~~~~~~~3~~~~~~~|---------------------------------|
 B|-------------0~~~~~~~~~~~~~~~~~~~|---------------------------------|
 G|---------------------------------|---------------------------------|
 D|---------------------------------|---------------------------------|
 A|---------------------------------|---------------------------------|
 E|---------------------------------|---------------------------------|

...remooove you
1 & 2 & 3 & 4 & 1 & 2 & 3 & 4 &
 
 e|---------------------------------|---------------------------------|
 B|-------------------------3~~~~~~~|---------------------------------|
 G|-------------0~~~~~~~~~~~~~~~~~~~|---------------------------------|
 D|-0~~~~~~~~~~~~~~~~~~~~~~~~~~~~~~~|---------------------------------|
 A|---------------------------------|---------------------------------|
 E|---------------------------------|---------------------------------|

...heaaar me ?
1 & 2 & 3 & 4 & 1 & 2 & 3 & 4 &
 
 e|-3~~~~~~~~~~~2~~~~~~~~~~~~~~~~~~~|-----------------x---x---x---x---|
 B|-------------------------3~~~~~~~|-----------------x---x---x---x---|
 G|---------------------------------|-----------------x---x---x---x---|
 D|---------------------------------|-----------------x---x---x---x---|
 A|---------------------------------|-----------------x---x---x---x---|
 E|---------------------------------|-----------------x---x---x---x---|

Chorus :
Now I'm [Em]giving up, I'm ne[C]ver looking bac[D]k
He[G]re we g[D]o again[Em]
You keep g[C]iving me a tas[D]te of your venom[Em]
You know I'm n[C]ever looking ba[D]ck
He[G]re we go again[Em]
C D (hold)
I don't want another taste of your venom
Verse 2 :
Repeat the 1st verse, and while this, the other guitar play this so you
can play it instead of playing the same thing than the 1st verse :
How dare you play the victim
1 & 2 & 3 & 4 & 1 & 2 & 3 & 4 &
 
 e|-0---0-------0---0---0-------0---|-0---0-------0---0---0-------0---|
 B|-0---0-------0---0---0-------0---|-0---0-------0---0---0-------0---|
 G|-0---0-------0---0---0-------0---|-0---0-------0---0---0-------0---| x2
 D|-2---2-------2---2---2-------2---|-2---2-------2---2---2-------2---|
 A|-2---2-------2---2---2-------2---|-2---2-------2---2---2-------2---|
 E|-0---0-------0---0---0-------0---|-0---0-------0---0---0-------0---|

...throoough you
1 & 2 & 3 & 4 & 1 & 2 & 3 & 4 &
 
 e|-0---0-------0---0---0-------0---|-0---0-------0---0---0-------0---|
 B|-1---1-------1---1---1-------1---|-1---1-------1---1---1-------1---|
 G|-0---0-------0---0---0-------0---|-0---0-------0---0---0-------0---|
 D|-2---2-------2---2---2-------2---|-2---2-------2---2---2-------2---|
 A|-3---3-------3---3---3-------3---|-3---3-------3---3---3-------3---|
 E|-x---x-------x---x---x-------x---|-x---x-------x---x---x-------x---|

...right throoough you
1 & 2 & 3 & 4 & 1 & 2 & 3 & 4 &
 
 e|-2---2-------2---2---2-------2---|-2---2~~~~~~~~~~~~~~~~~~~~~~~~~~~|
 B|-3---3-------3---3---3-------3---|-3---3~~~~~~~~~~~~~~~~~~~~~~~~~~~|
 G|-2---2-------2---2---2-------2---|-2---2~~~~~~~~~~~~~~~~~~~~~~~~~~~|
 D|-0---0-------0---0---0-------0---|-0---0~~~~~~~~~~~~~~~~~~~~~~~~~~~|
 A|-x---x-------x---x---x-------x---|-x---x---------------------------|
 E|-x---x-------x---x---x-------x---|-x---x---------------------------|

But still you keep me captive
1 & 2 & 3 & 4 & 1 & 2 & 3 & 4 &
 
 e|-0---0-------0---0---0-------0---|-0---0-------0---0---0-------0---|
 B|-0---0-------0---0---0-------0---|-0---0-------0---0---0-------0---|
 G|-0---0-------0---0---0-------0---|-0---0-------0---0---0-------0---| x2
 D|-2---2-------2---2---2-------2---|-2---2-------2---2---2-------2---|
 A|-2---2-------2---2---2-------2---|-2---2-------2---2---2-------2---|
 E|-0---0-------0---0---0-------0---|-0---0-------0---0---0-------0---|

...seeeeerve you
1 & 2 & 3 & 4 & 1 & 2 & 3 & 4 &
 
 e|-0---0-------0---0---0-------0---|-0---0-------0---0---0-----------|
 B|-1---1-------1---1---1-------1---|-1---1-------1---1---1-----------|
 G|-0---0-------0---0---0-------0---|-0---0-------0---0---0-----------|
 D|-2---2-------2---2---2-------2---|-2---2-------2---2---2-----------|
 A|-3---3-------3---3---3-------3---|-3---3-------3---3---3-----------|
 E|-x---x-------x---x---x-------x---|-x---x-------x---x---x-----------|

...hate you , hate you !!!
1 & 2 & 3 & 4 & 1 & 2 & 3 & 4 &
 
 e|-3---3-------------------3---3---|-------------3-3-3---3---3---3---|
 B|-3---3-------------------2---2---|-------------2-2-2---2---2---2---|
 G|-0---0-------------------3---3---|-------------3-3-3---3---3---3---|
 D|-0---0-------------------0---0---|-------------0-0-0---0---0---0---|
 A|-2---2-------------------x---x---|-------------x-x-x---x---x---x---|
 E|-3---3-------------------x---x---|-------------x-x-x---x---x---x---|

Chorus 2 :
Now I'm g[Em]iving up, I'm nev[C]er looking back[D]
He[G]re we g[D]o again[Em]
You keep g[C]iving me a tas[D]te of your venom[Em]
You know I'm n[C]ever looking ba[D]ck
He[G]re we go again[Em]
I don't w[C]ant another ta[D]ste of your venom
Verse 3 :
I feel asphyxiated
1 & 2 & 3 & 4 & 1 & 2 & 3 & 4 &
 
 e|-------------2---2---3---3---3---|-------------2---2---3---3---3---|
 B|-3---3---3-----------------------|-3---3---3-----------------------|
 G|---------------------------------|---------------------------------|
 D|---------------------------------|---------------------------------|
 A|---------------------------------|---------------------------------|
 E|---------------------------------|---------------------------------|

Rythm chords:
[C]  
...it's more than I can take.
1 & 2 & 3 & 4 & 1 & 2 & 3 & 4 &
 
 e|-0---0---0---0---0---0---0---0---|-2---2---2---2---2---2---2---2---|
 B|---------------------------------|---------------------------------|
 G|---------------------------------|---------------------------------|
 D|---------------------------------|---------------------------------|
 A|---------------------------------|---------------------------------|
 E|---------------------------------|---------------------------------|

Rythm chords:
[Em] [E] 
...but nothing ever changes
1 & 2 & 3 & 4 & 1 & 2 & 3 & 4 &
 
 e|-------------2---2---3---3---3---|-------------2---2---3---3---3---|
 B|-3---3---3-----------------------|-3---3---3-----------------------|
 G|---------------------------------|---------------------------------|
 D|---------------------------------|---------------------------------|
 A|---------------------------------|---------------------------------|
 E|---------------------------------|---------------------------------|

Rythm chords:
[C]  
...in the end.
1 & 2 & 3 & 4 & 1 & 2 & 3 & 4 &
 
 e|-5---5---5---5---5---5---5---5---|-3---3---3---3-------------------|
 B|---------------------------------|---------------------------------|
 G|---------------------------------|---------------------------------|
 D|---------------------------------|---------------------------------|
 A|---------------------------------|---------------------------------|
 E|---------------------------------|---------------------------------|

Rythm chords:
[D] [G] 
No more I'm suffocating
1 & 2 & 3 & 4 & 1 & 2 & 3 & 4 &
 
 e|-------------2---2---3---3---3---|-------------2---2---3---3---3---|
 B|-3---3---3-----------------------|-3---3---3-----------------------|
 G|---------------------------------|---------------------------------|
 D|---------------------------------|---------------------------------|
 A|---------------------------------|---------------------------------|
 E|---------------------------------|---------------------------------|

Rythm chords:
[C]  
...you've gone and lost your breath
1 & 2 & 3 & 4 & 1 & 2 & 3 & 4 &
 
 e|---------------------------------|-2---2---2---2---2---2---2---2---|
 B|-3---3---3---3---3---3---3---3---|---------------------------------|
 G|---------------------------------|---------------------------------|
 D|---------------------------------|---------------------------------|
 A|---------------------------------|---------------------------------|
 E|---------------------------------|---------------------------------|

Rythm chords:
[Em]  
...but nothing ever changes...
1 & 2 & 3 & 4 & 1 & 2 & 3 & 4 &
 
 e|-------------2---2---3---3---3---|-------------2---2---3---3---3---|
 B|-3---3---3-----------------------|-3---3---3-----------------------|
 G|---------------------------------|---------------------------------|
 D|---------------------------------|---------------------------------|
 A|---------------------------------|---------------------------------|
 E|---------------------------------|---------------------------------|

Rythm chords:
[C]  
...in the end
1 & 2 & 3 & 4 & 1 & 2 & 3 & 4 &
 
 e|-5---5---5---5---5---5---5---5---|-3---3---3---3---2---2---2---2---|
 B|---------------------------------|---------------------------------|
 G|---------------------------------|---------------------------------|
 D|---------------------------------|---------------------------------|
 A|---------------------------------|---------------------------------|
 E|---------------------------------|---------------------------------|

Rythm chords:
[D] [G] 
1 & 2 & 3 & 4 & 1 & 2 & 3 & 4 &
 
 e|-0~~~~~~~~~~~~~~~~~~~~~~~~~~~~~~~|(0)------------------------------|
 B|---------------------------------|---------------------------------|
 G|---------------------------------|---------------------------------|
 D|---------------------------------|---------------------------------|
 A|---------------------------------|---------------------------------|
 E|---------------------------------|---------------------------------|

Rythm chords:
[Em]  
Here, there is the intro riff played 3 times. But if you want to play the very beginning, you couldn't,
because I think this is an additional guitar recorded over the original ones. If you want play the intro,
personally, I let ring the final note of the end of the verse 3 during the first riff of the intro and
I play him from the 2nd time.
Hate you , hate you !!!
1 & 2 & 3 & 4 & 1 & 2 & 3 & 4 &
 
 e|-3---3-------------------3---3---|-------------3-3-3---3---3---3---|
 B|-3---3-------------------2---2---|-------------2-2-2---2---2---2---|
 G|-0---0-------------------3---3---|-------------3-3-3---3---3---3---|
 D|-0---0-------------------0---0---|-------------0-0-0---0---0---0---|
 A|-2---2-------------------x---x---|-------------x-x-x---x---x---x---|
 E|-3---3-------------------x---x---|-------------x-x-x---x---x---x---| 


Important: The song above is NOT stored on the Chordie server. The original song is hosted at www.azchords.com. Chordie works as a search engine and provides on-the-fly formatting. Chordie does not index songs against artists'/composers' will. To remove this song please click here.

Text color:
Chord color:
Chord grids: 
Font size:    
Page size: 

C D E Em G
Rate #1 of 2 versions

Jango Player

Login - add to songbook

SHARE PAGE  




You need to log in to post comments