Guitar Tabs, Chords and Lyrics
Server problems seems to be fixed. Chordie has been experiencing problems with songs disappearing. These issues now seems to be fixed, but still verifying the fix. If you find anything strange, please email admin@chordie.com.


Eyes Wide Shut  Bury Your Dead

Eyes Wide Shut
Bury Your Dead
Guitar
Tuning: A# F A# D# G C
[E] [E] [E] [E] [E] [E] [E] [E] [E] [E] [E] [E] [E] [E] [E] [E]  
 
 C ||--------------------------|--------------------------|
 G ||--------------------------|--------------------------|
 D#||--------------------------|--------------------------|
 A#||--------------------------|--------------------------|
 F ||--------------------------|--------------------------|
 A#||--0--0--0--0-----0-----0--|--0--0--0-----0--0--0--0--|

PM PM PM PM PM PM PM
S Q E. H E E E E E E E S S
 
 -----------------------|-----------------------------|
 -----------------------|-----------------------------|
 -----------------------|-----------------------------|
 -----------------------|-----------------------------|
 -----------------------|--0--0--0--0-----0-----0--0--|
 --L-1----0---3b--------|--0--0--0--0-----0-----0--0--|

PM PM PM PM PM PM PM PM PM PM PM PM PM PM PM
E E E E E E E E E E E E E E S S S S
 
 --------------------------|--------------------------------|
 --------------------------|--------------------------------|
 --------------------------|--------------------------------|
 --------------------------|--------------------------------|
 --0--0--0-----0--0--0--0--|-----0-----0--0--0--1--1--1--1--|
 --0--0--0-----0--0--0--0--|-----0-----0--0--0--1--1--1--1--|

PM PM PM PM PM PM PM PM PM PM PM PM PM PM
E E E E E E E S S E E E E E E E E
 
 -----------------------------|--------------------------|
 -----------------------------|--------------------------|
 -----------------------------|--------------------------|
 -----------------------------|--------------------------|
 --0--0--0--0-----0-----0--0--|--0--0--0-----0--0--0--0--|
 --0--0--0--0-----0-----0--0--|--0--0--0-----0--0--0--0--|

PM PM PM PM PM PM PM PM PM PM PM PM
E E E E E E Q S S S S S S S S E. E. E
 
 ---------------------------|-------------------------------------|
 ---------------------------|-------------------------------------|
 ---------------------------|-------------------------------------|
 ---------------------------|-------------------------------------|
 -----0-----0--0--0--12\----|--0--0--0--0--0--0--0--0--1---3---4--|
 -----0-----0--0--0--12\----|--0--0--0--0--0--0--0--0--1---3---4--|

PM PM PM PM PM PM PM PM PM PM PM PM PM PM PM
S S S S S S S S E. E. E E E E E E E E S S
 
 -------------------------------------|-----------------------------|
 -------------------------------------|-----------------------------|
 -------------------------------------|-----------------------------|
 -------------------------------------|-----------------------------|
 --0--0--0--0--0--0--0--0--3---5---6--|--0--0--0--0--L--0--L--0--0--|
 --0--0--0--0--0--0--0--0--3---5---6--|--0--0--0--0--L--0--L--0--0--|

PM PM PM PM PM PM PM PM PM PM PM PM PM PM PM
E E E E E E E E E E E E E E S S S S
 
 --------------------------|--------------------------------|
 --------------------------|--------------------------------|
 --------------------------|--------------------------------|
 --------------------------|--------------------------------|
 --0--0--0--L--0--0--0--0--|--L--0--L--0--0--0--1--1--1--1--|
 --0--0--0--L--0--0--0--0--|--L--0--L--0--0--0--1--1--1--1--|

PM PM PM PM PM PM PM PM PM PM PM PM PM PM
E E E E E E E S S E E E E E E E E
 
 -----------------------------|--------------------------|
 -----------------------------|--------------------------|
 -----------------------------|--------------------------|
 -----------------------------|--------------------------|
 --0--0--0--0--L--0--L--0--0--|--0--0--0--L--0--0--0--0--|
 --0--0--0--0--L--0--L--0--0--|--0--0--0--L--0--0--0--0--|

PM PM PM PM PM PM PM PM PM PM PM PM
E E E E E E Q S S S S S S S S E. E. E
 
 ---------------------------|-------------------------------------|
 ---------------------------|-------------------------------------|
 ---------------------------|-------------------------------------|
 ---------------------------|-------------------------------------|
 --L--0--L--0--0--0--12\----|--0--0--0--0--0--0--0--0--1---3---4--|
 --L--0--L--0--0--0--12\----|--0--0--0--0--0--0--0--0--1---3---4--|

PM PM PM PM PM PM PM PM
S S S S S S S S E. E. E S S S S E E S S E E S S
 
 -------------------------------------|------------------------------|
 -------------------------------------|------------------------------|
 -------------------------------------|------------------------------|
 -------------------------------------|------------------------------|
 --0--0--0--0--0--0--0--0--3---5---6--|----------5--4----------------|
 --0--0--0--0--0--0--0--0--3---5---6--|--0-0-0-0-------0-0-0--L--0-0-|

E E E E E E E E S S S S E E S S E E S S
 
 --------------------------|------------------------------|
 --------------------------|------------------------------|
 --------------------------|------------------------------|
 --------------------------|------------------------------|
 --------------------------|----------5--4----------------|
 --1--3--0--0--1--4--0--0--|--0-0-0-0-------0-0-0--L--0-0-|

PM PM PM PM
E E E E E E E E W H. S S S S
 
 --------------------------|-------------------|---------------------------|
 --------------------------|-------------------|---------------------------|
 --------------------------|-------------------|---------------------------|
 --------------------------|-------------------|---------------------------|
 --------------------------|--0----------------|--L------------0--0--0--0--|
 --1--3--0--0--1--4--0--0--|--0----------------|--L------------0--0--0--0--|

PM PM PM PM PM
E E H. E E E E E E E E E E E E E E E E
 
 ---------------------|--------------------------||---------------------------|
 ---------------------|--------------------------||---------------------------|
 ---------------------|--------------------------||*--------------------------|
 ---------------------|--------------------------||*--------7--6--------------|
 --0------------------|--1--3--------1--4--------||---0--0--5--4-----0-----0--|
 --0------------------|--1--3--0--0--1--4--0--0--||---0--0-----------0-----0--|

PM PM PM PM
[E] [E] [E] [E] [E] [E] [E] [E] [E] [E] [E] [E] [E] [E] [E] [E]  
 
 --------------------------|--------------------------|
 --------------------------|--------------------------|
 --------------------------|--------------------------|
 --------------------------|--------7--6--------------|
 --1--3--------4--6--4--6--|--0--0--5--4-----0-----0--|
 --1--3--0--0--4--6--4--6--|--0--0-----------0-----0--|

[E] [E] [E] [E] [E] [E] [E] [E] [E] [E] [E] [E] [E] [E] [E] [E]  
 
 ---------------------------||--------------------------|
 ---------------------------||--------------------------|
 --------------------------*||--------------------------|
 --------------------------*||--------------------------|
 --1--3--------1--3--1--3---||--------------------------|
 --1--3--0--0--1--3--1--3---||--0--0--0--0-----0-----0--|

E E E E E E E E S Q E. H
 
 --------------------------|-------------------------|
 --------------------------|-------------------------|
 --------------------------|-------------------------|
 --------------------------|-------------------------|
 --------------------------|-------------<>3b--------|
 --0--0--0-----0--0--0--0--|--L-1----0---------------|

PM PM PM PM PM PM PM PM PM PM PM PM PM PM
E E E E E E E S S E E E E E E E E
 
 -----------------------------|--------------------------|
 -----------------------------|--------------------------|
 -----------------------------|--------------------------|
 -----------------------------|--------------------------|
 --0--0--0--0-----0-----0--0--|--0--0--0-----0--0--0--0--|
 --0--0--0--0-----0-----0--0--|--0--0--0-----0--0--0--0--|

PM PM PM PM PM PM PM PM PM PM PM PM PM PM PM
E E E E E E S S S S E E E E E E E S S
 
 --------------------------------|-----------------------------|
 --------------------------------|-----------------------------|
 --------------------------------|-----------------------------|
 --------------------------------|-----------------------------|
 -----0-----0--0--0--1--1--1--1--|--0--0--0--0-----0-----0--0--|
 -----0-----0--0--0--1--1--1--1--|--0--0--0--0-----0-----0--0--|

PM PM PM PM PM PM PM PM PM PM PM
E E E E E E E E E E E E E E Q
 
 --------------------------|---------------------------|
 --------------------------|---------------------------|
 --------------------------|---------------------------|
 --------------------------|---------------------------|
 --0--0--0-----0--0--0--0--|-----0-----0--0--0--12\----|
 --0--0--0-----0--0--0--0--|-----0-----0--0--0--12\----|

PM PM PM PM PM PM PM PM PM PM PM PM PM PM PM PM
S S S S S S S S E. E. E S S S S S S S S E. E. E
 
 -------------------------------------|-------------------------------------|
 -------------------------------------|-------------------------------------|
 -------------------------------------|-------------------------------------|
 -------------------------------------|-------------------------------------|
 --0--0--0--0--0--0--0--0--1---3---4--|--0--0--0--0--0--0--0--0--3---5---6--|
 --0--0--0--0--0--0--0--0--1---3---4--|--0--0--0--0--0--0--0--0--3---5---6--|

E Q E E Q E E E E E E E E E
 
 ------------------------|--------------------------|
 ------------------------|--------------------------|
 ------------------------|--------------------------|
 --8--8----8--8--8----8--|--------------------------|
 --6--6----6--6--6----6--|--5--7--------4--3--1--3--|
 ------------------------|--5--7--0--0--4--3--1--3--|

PM PM PM PM PM PM PM PM PM PM PM PM PM PM PM PM
S S S S S S S S E. E. E S S S S S S S S E. E. E
 
 -------------------------------------|-------------------------------------|
 -------------------------------------|-------------------------------------|
 -------------------------------------|-------------------------------------|
 -------------------------------------|-------------------------------------|
 --0--0--0--0--0--0--0--0--1---3---4--|--0--0--0--0--0--0--0--0--3---5---6--|
 --0--0--0--0--0--0--0--0--1---3---4--|--0--0--0--0--0--0--0--0--3---5---6--|

E Q E E Q E E E E E E E E E
 
 ------------------------|--------------------------|
 ------------------------|--------------------------|
 ------------------------|--------------------------|
 --8--8----8--8--8----8--|--------------------------|
 --6--6----6--6--6----6--|--5--7--------4--3--1--3--|
 ------------------------|--5--7--0--0--4--3--1--3--|

PM PM PM PM PM PM PM PM PM PM PM PM PM PM PM PM
S S S S S S S S E. E. E S S S S S S S S E. E. E
 
 -------------------------------------|-------------------------------------|
 -------------------------------------|-------------------------------------|
 -------------------------------------|-------------------------------------|
 -------------------------------------|-------------------------------------|
 --0--0--0--0--0--0--0--0--1---3---4--|--0--0--0--0--0--0--0--0--3---5---6--|
 --0--0--0--0--0--0--0--0--1---3---4--|--0--0--0--0--0--0--0--0--3---5---6--|

E Q E E Q E E E E E E E E E
 
 ------------------------|--------------------------|
 ------------------------|--------------------------|
 ------------------------|--------------------------|
 --8--8----8--8--8----8--|--------------------------|
 --6--6----6--6--6----6--|--5--7--------4--3--1--3--|
 ------------------------|--5--7--0--0--4--3--1--3--|

PM PM PM PM PM PM PM PM PM PM PM PM PM PM PM PM
S S S S S S S S E. E. E S S S S S S S S E. E. E
 
 -------------------------------------|-------------------------------------|
 -------------------------------------|-------------------------------------|
 -------------------------------------|-------------------------------------|
 -------------------------------------|-------------------------------------|
 --0--0--0--0--0--0--0--0--1---3---4--|--0--0--0--0--0--0--0--0--3---5---6--|
 --0--0--0--0--0--0--0--0--1---3---4--|--0--0--0--0--0--0--0--0--3---5---6--|

PM PM PM PM
E Q E E Q E E E E E E E E E E E E E E E E E
 
 ------------------------|--------------------------|--------------------------|
 ------------------------|--------------------------|--------------------------|
 ------------------------|--------------------------|--------------------------|
 --8--8----8--8--8----8--|--------------------------|--------7--6--------------|
 --6--6----6--6--6----6--|--5--7--------4--3--1--3--|--0--0--5--4-----0-----0--|
 ------------------------|--5--7--0--0--4--3--1--3--|--0--0-----------0-----0--|

PM PM PM PM
[E] [E] [E] [E] [E] [E] [E] [E] [E] [E] [E] [E] [E] [E] [E] [E]  
 
 --------------------------|--------------------------|
 --------------------------|--------------------------|
 --------------------------|--------------------------|
 --------------------------|--------7--6--------------|
 --1--3--------4--6--4--6--|--0--0--5--4-----0-----0--|
 --1--3--0--0--4--6--4--6--|--0--0-----------0-----0--|

PM PM PM PM
[E] [E] [E] [E] [E] [E] [E] [E] [E] [E] [E] [E] [E] [E] [E] [E]  
 
 --------------------------|--------------------------|
 --------------------------|--------------------------|
 --------------------------|--------------------------|
 --------------------------|--------7--6--------------|
 --1--3--------1--3--1--3--|--0--0--5--4-----0-----0--|
 --1--3--0--0--1--3--1--3--|--0--0-----------0-----0--|

PM PM PM PM
E E E E E E E E E E E E E E E E E E E E E E Q
 
 --------------------------|--------------------------|-------------------------|
 --------------------------|--------------------------|-------------------------|
 --------------------------|--------------------------|-------------------------|
 --------------------------|--------7--6--------------|-------------------------|
 --1--3--------4--6--4--6--|--0--0--5--4-----0-----0--|--3--3--3--3--4--4--4----|
 --1--3--0--0--4--6--4--6--|--0--0-----------0-----0--|--3--3--3--3--4--4--4----|

E E S S S S E E S S S S E E E E H
 
 ------------------------------|-----------------------|
 ------------------------------|-----------------------|
 ------------------------------|-----------------------|
 ------------------------------|-----------------------|
 --0--0--0-0-0-0-0--0--0-0-0-0-|--0--0--0--------------|
 --0--0--0-0-0-0-0--0--0-0-0-0-|--0--0--0--------------|

E E E E E E E E E E E E E E Q
 
 --------------------------|-------------------------|
 --------------------------|-------------------------|
 --------------------------|-------------------------|
 --------------------------|-------------------------|
 --0--0--0--0-----0-----0--|--0--0--0--------1--3----|
 --0--0--0--0-----0-----0--|--0--0--0-----0--1--3----|

E E S S S S E E S S S S E E E E H
 
 ------------------------------|-----------------------|
 ------------------------------|-----------------------|
 ------------------------------|-----------------------|
 ------------------------------|-----------------------|
 --0--0--0-0-0-0-0--0--0-0-0-0-|--0--0--0--------------|
 --0--0--0-0-0-0-0--0--0-0-0-0-|--0--0--0--------------|

E E E E E E E E E E E E E E Q W
 
 --------------------------|-------------------------|-------------------|
 --------------------------|-------------------------|-------------------|
 --------------------------|-------------------------|-------------------|
 --------------------------|-------------------------|-------------------|
 --0--0--0--0-----0-----0--|--0--0--0--------1--3----|--L----------------|
 --0--0--0--0-----0-----0--|--0--0--0-----0--1--3----|--L----------------|

W E E S S S S E E S S S S E E E E H
 
 -------------------|------------------------------|-----------------------|
 -------------------|------------------------------|-----------------------|
 -------------------|------------------------------|-----------------------|
 -------------------|------------------------------|-----------------------|
 --L----------------|--0--0--0-0-0-0-0--0--0-0-0-0-|--0--0--0--------------|
 --L----------------|--0--0--0-0-0-0-0--0--0-0-0-0-|--0--0--0--------------|

E E E E E E E E E E E E E E Q
 
 --------------------------|-------------------------|
 --------------------------|-------------------------|
 --------------------------|-------------------------|
 --------------------------|-------------------------|
 --0--0--0--0-----0-----0--|--0--0--0--------1--3----|
 --0--0--0--0-----0-----0--|--0--0--0-----0--1--3----|

E E S S S S E E S S S S E E E E H
 
 ------------------------------|-----------------------|
 ------------------------------|-----------------------|
 ------------------------------|-----------------------|
 ------------------------------|-----------------------|
 --0--0--0-0-0-0-0--0--0-0-0-0-|--0--0--0--------------|
 --0--0--0-0-0-0-0--0--0-0-0-0-|--0--0--0--------------|

E E E E E E E E E E E E E E Q
 
 --------------------------|-------------------------|
 --------------------------|-------------------------|
 --------------------------|-------------------------|
 --------------------------|-------------------------|
 --0--0--0--0-----0-----0--|--0--0--0--------1--3----|
 --0--0--0--0-----0-----0--|--0--0--0-----0--1--3----|

E E S S S S E E S S S S E E E E H
 
 ------------------------------|-----------------------|
 ------------------------------|-----------------------|
 ------------------------------|-----------------------|
 ------------------------------|-----------------------|
 --0--0--0-0-0-0-0--0--0-0-0-0-|--0--0--0--------------|
 --0--0--0-0-0-0-0--0--0-0-0-0-|--0--0--0--------------|

E E E E E E E E E E E E E E Q
 
 --------------------------|-------------------------|
 --------------------------|-------------------------|
 --------------------------|-------------------------|
 --------------------------|-------------------------|
 --0--0--0--0-----0-----0--|--0--0--0--------1--3----|
 --0--0--0--0-----0-----0--|--0--0--0-----0--1--3----|

E E S S S S E E S S S S E E E E H
 
 ------------------------------|-----------------------|
 ------------------------------|-----------------------|
 ------------------------------|-----------------------|
 ------------------------------|-----------------------|
 --0--0--0-0-0-0-0--0--0-0-0-0-|--0--0--0--------------|
 --0--0--0-0-0-0-0--0--0-0-0-0-|--0--0--0--------------|

E E E E E E E E E E E E E E Q W
 
 --------------------------|-------------------------|-------------------|
 --------------------------|-------------------------|-------------------|
 --------------------------|-------------------------|-------------------|
 --------------------------|-------------------------|-------------------|
 --0--0--0--0-----0-----0--|--0--0--0--------1--3----|--L----------------|
 --0--0--0--0-----0-----0--|--0--0--0-----0--1--3----|--L----------------|

W W W W
 
 -------------------|-------------------|-------------------|-------------------|
 -------------------|-------------------|-------------------|-------------------|
 -------------------|-------------------|-------------------|-------------------|
 -------------------|-------------------|-------------------|-------------------|
 --L----------------|--L----------------|--L----------------|--L----------------|
 --L----------------|--L----------------|--L----------------|--L----------------|
 -------|-------|-------|-------|-------|-------|-------|-------|-------|-------|
 -------|-------|-------|-------|-------|-------|-------|-------|-------|-------|
 -------|-------|-------|-------|-------|-------|-------|-------|-------|-------|
 -------|-------|-------|-------|-------|-------|-------|-------|-------|-------|
 -------|-------|-------|-------|-------|-------|-------|-------|-------|-------|
 -------|-------|-------|-------|-------|-------|-------|-------|-------|-------|
 -------|-------||
 -------|-------||
 -------|-------||
 -------|-------||
 -------|-------||
 -------|-------||

Duration Legend
 
 ---------------

W - whole
H - half
Q - quarter
E - 8th
S - 16th
T - 32nd
X - 64th
. - note dotted
|-n-| - n-tuplets
Tablature Legend
 
 ----------------

L - tied note
x - dead note
g - grace note
(n) - ghost note
> - accentuded note
NH - natural harmonic
AH - artificial harmonic
TH - tapped harmonic
SH - semi harmonic
PH - pitch harmonic
h - hammer on
p - pull off
b - bend
br - bendRelease
pb - preBend
pbr - preBendRelease
brb - bendReleaseBend
\n/ - tremolo bar dip
\n - tremolo bar dive
-/n - tremolo bar Release up
/n\ - tremolo bar inverted dip
/n - tremolo bar return
-\n - tremolo bar Release down
S - shift slide
s - legato slide
/ - slide into from below or out of upwards
\ - slide into from above or out of downwards
~ - vibrato
W - wide vibrato
tr - trill
TP - tremolo picking
T - tapping
S - slap
P - pop
< - fade in
^ - brush up
v - brush down

Important: The song above is NOT stored on the Chordie server. The original song is hosted at www.azchords.com. Chordie works as a search engine and provides on-the-fly formatting. Chordie does not index songs against artists'/composers' will. To remove this song please click here.

Text color:
Chord color:
Chord grids: 
Font size:    
Page size: 

E
Rate #1 of 1 versions

Login - add to songbook

SHARE PAGE  



You need to log in to post comments