Guitar Tabs, Chords and Lyrics
Server problems seems to be fixed. Chordie has been experiencing problems with songs disappearing. These issues now seems to be fixed, but still verifying the fix. If you find anything strange, please email admin@chordie.com.


Magnolia  Bury Your Dead

Magnolia
Bury Your Dead
Slim
Tuning: A# F A# D# G C
PM PM PM PM PM PM PM
[E] [E] [E] [E] [E] [E] [E] [E] [E] [E] [E] [E] [E] [E] [E] [E]  
 
 C ||---------------------------|--------------------------|
 G ||---------------------------|--------------------------|
 D#||---------------------------|--------------------------|
 A#||--8--7-----3-----5-----5s--|--7--------------7--7--7--|
 F ||--8--7--0--3--0--3--0--3s--|--5--0--0--0--0--8--8--8--|
 A#||--8--7--0--3--0-----0------|-----0--0--0--0-----------|

PM PM PM PM
[E] [E] [E] [E] [E] [E] [E] [E] [E] [E] [E] [E] [E] [E] [E] [E]  
 
 --------------------------|--------------------------|
 --------------------------|--------------------------|
 --------------------------|--------------------------|
 --7--------------7--7--7--|--7--7--7--7--7--8--8--8--|
 --8--0--0--0--0--8--8--8--|--8--7--7--7--7--8--8--8--|
 -----0--0--0--0-----------|-----7--7--7--7--8--8--8--|

PM PM PM PM PM PM PM
[E] [E] [E] [E] [E] [E] [E] [E] [E] [E] [E] [E] [E] [E] [E] [E]  
 
 ---------------------------|--------------------------|
 ---------------------------|--------------------------|
 ---------------------------|--------------------------|
 --8--7-----3-----5-----5s--|--7--------------7--7--7--|
 --8--7--0--3--0--3--0--3s--|--5--0--0--0--0--8--8--8--|
 --8--7--0--3--0-----0------|-----0--0--0--0-----------|

PM PM PM PM
[E] [E] [E] [E] [E] [E] [E] [E] [E] [E] [E] [E] [E] [E] [E] [E]  
 
 --------------------------|--------------------------|
 --------------------------|--------------------------|
 --------------------------|--------------------------|
 --7--------------7--7--7--|--7--7--7--7--7--8--8--8--|
 --8--0--0--0--0--8--8--8--|--8--7--7--7--7--8--8--8--|
 -----0--0--0--0-----------|-----7--7--7--7--8--8--8--|

PM PM PM PM PM PM
[E] [E] [E] [E] [E] [E] [E] [E] [E] [E] [E] [E] [E] [E] [E] [E]  
 
 ---------------------------|--------------------------|
 ---------------------------|--------------------------|
 ---------------------------|--------------------------|
 --8--7-----3-----5-----5s--|--7--------------7--7--7--|
 --8--7--0--3--0--3--0--3s--|--5--0--0-----0--8--8--8--|
 --8--7--0--3--0-----0------|-----0--0--0--0-----------|

PM PM PM PM
E S S E E E E E E E E E E E E E E
 
 -----------------------------|--------------------------|
 -----------------------------|--------------------------|
 -----------------------------|--------------------------|
 --7-----------------7--7--7--|--7--7--7--7--7--8--8--8--|
 --8--------------0--8--8--8--|--8--7--7--7--7--8--8--8--|
 -----0--0--0--0--0-----------|-----7--7--7--7--8--8--8--|

PM PM PM PM PM PM
[E] [E] [E] [E] [E] [E] [E] [E] [E] [E] [E] [E] [E] [E] [E] [E]  
 
 --------------------------|--------------------------|
 --------------------------|--------------------------|
 --------------------------|--------------------------|
 --8--7-----3-----5-----5--|--7--------------7--7--7--|
 --8--7--0--3--0--3--0--3--|--5--0--0-----0--8--8--8--|
 --8--7--0--3--0-----0-----|-----0--0--0--0-----------|

PM PM PM PM PM
E E E E E E E E E E E E E E E E E E E E E Q.
 
 --------------------------|--------------------------|------------------------|
 --------------------------|--------------------------|------------------------|
 --------------------------|--------------------------|------------------------|
 --7--------------7--7--7--|--7--7--7--7--7--8--8--8--|--8--7-----3-----5------|
 --8--0--0-----0--8--8--8--|--8--7--7--7--7--8--8--8--|--8--7--0--3--0--3------|
 -----0--0--0--0-----------|-----7--7--7--7--8--8--8--|--8--7--0--3--0---------|

PM PM PM PM PM PM PM PM PM PM PM
[E] [E] [E] [E] [E] [E] [E] [E] [E] [E] [E] [E] [E] [E] [E] [E]  
 
 --------------------------|-----|--------------------------|
 --------------------------|-----|--------------------------|
 --------------------------|-----|--------------------------|
 --------------------------|-----|--------------------------|
 --5--4--3--0--4--3--1--0--|-----|--6--------0-----0--------|
 --5--4--3--0--4--3--1--0--|-----|--6--0--0--0--0--0--------|

PM PM PM PM PM
[E] [E] [E] [E] [E] [E] [E] [E] [E] [E] [E] [E] [E] [E] [E] [E]  
 
 --------------------------|--------------------------|
 --------------------------|--------------------------|
 --------------------------|--------------------------|
 --------------------------|--------------------------|
 -----0-----0-----3--4--3--|--6--------0-----0--------|
 -----0--0--0--0--3--4--3--|--6--0--0--0--0--0--------|

PM PM PM PM PM PM PM
E E E E E E E E E E E E E E E S S
 
 --------------------------|-----------------------------|
 --------------------------|-----------------------------|
 --------------------------|-----------------------------|
 --------------------------|-----------------------------|
 -----0-----0-----3--4--3--|--6--------0-----0--0--------|
 -----0--0--0--0--3--4--3--|--6--0--0--0--0--0--0--0--0--|

PM PM PM PM PM PM PM PM
E E E E E E E E E E E E E E E S S
 
 --------------------------|-----------------------------|
 --------------------------|-----------------------------|
 --------------------------|-----------------------------|
 --------------------------|-----------------------------|
 -----0-----0-----3--4--3--|--6--------0-----0--0--------|
 --0--0--0--0--0--3--4--3--|--6--0--0--0--0--0--0--0--0--|

PM PM PM PM PM PM
[E] [E] [E] [E] [E] [E] [E] [E] [E] [E] [E] [E] [E] [E] [E] [E]  
 
 ---------------------------|--------------------------|
 ---------------------------|--------------------------|
 ---------------------------|--------------------------|
 --8--7-----3-----5-----5s--|--7--------------7--7--7--|
 --8--7--0--3--0--3--0--3s--|--5--0--0-----0--8--8--8--|
 --8--7--0--3--0-----0------|-----0--0--0--0-----------|

PM PM PM
[E] [E] [E] [E] [E] [E] [E] [E] [E] [E] [E] [E] [E] [E] [E] [E]  
 
 --------------------------|--------------------------|
 --------------------------|--------------------------|
 --------------------------|--------------------------|
 --7--------------7--7--7--|--7--7--7--7--7--8--8--8--|
 --8--0--0-----0--8--8--8--|--8--7--7--7--7--8--8--8--|
 -----0--0--0--0-----------|-----7--7--7--7--8--8--8--|

PM PM PM PM PM PM
[E] [E] [E] [E] [E] [E] [E] [E] [E] [E] [E] [E] [E] [E] [E] [E]  
 
 ---------------------------|--------------------------|
 ---------------------------|--------------------------|
 ---------------------------|--------------------------|
 --8--7-----3-----5-----5s--|--7--------------7--7--7--|
 --8--7--0--3--0--3--0--3s--|--5--0--0-----0--8--8--8--|
 --8--7--0--3--0-----0------|-----0--0--0--0-----------|

PM PM PM
[E] [E] [E] [E] [E] [E] [E] [E] [E] [E] [E] [E] [E] [E] [E] [E]  
 
 --------------------------|--------------------------|
 --------------------------|--------------------------|
 --------------------------|--------------------------|
 --7--------------7--7--7--|--7--7--7--7--7--8--8--8--|
 --8--0--0-----0--8--8--8--|--8--7--7--7--7--8--8--8--|
 -----0--0--0--0-----------|-----7--7--7--7--8--8--8--|

PM PM PM PM PM PM
[E] [E] [E] [E] [E] [E] [E] [E] [E] [E] [E] [E] [E] [E] [E] [E]  
 
 ---------------------------|--------------------------|
 ---------------------------|--------------------------|
 ---------------------------|--------------------------|
 --8--7-----3-----5-----5s--|--7--------------7--7--7--|
 --8--7--0--3--0--3--0--3s--|--5--0--0-----0--8--8--8--|
 --8--7--0--3--0-----0------|-----0--0--0--0-----------|

PM PM PM PM
E S S E E E E E E E E E E E E E E
 
 -----------------------------|--------------------------|
 -----------------------------|--------------------------|
 -----------------------------|--------------------------|
 --7-----------------7--7--7--|--7--7--7--7--7--8--8--8--|
 --8--------------0--8--8--8--|--8--7--7--7--7--8--8--8--|
 -----0--0--0--0--0-----------|-----7--7--7--7--8--8--8--|

PM PM PM PM PM PM
[E] [E] [E] [E] [E] [E] [E] [E] [E] [E] [E] [E] [E] [E] [E] [E]  
 
 ---------------------------|--------------------------|
 ---------------------------|--------------------------|
 ---------------------------|--------------------------|
 --8--7-----3-----5-----5s--|--7--------------7--7--7--|
 --8--7--0--3--0--3--0--3s--|--5--0--0-----0--8--8--8--|
 --8--7--0--3--0-----0------|-----0--0--0--0-----------|

PM PM PM PM PM
E E E E E E E E E E E E E E E E E E E E E Q.
 
 --------------------------|--------------------------|------------------------|
 --------------------------|--------------------------|------------------------|
 --------------------------|--------------------------|------------------------|
 --7--------------7--7--7--|--7--7--7--7--7--8--8--8--|--8--7-----3-----5------|
 --8--0--0-----0--8--8--8--|--8--7--7--7--7--8--8--8--|--8--7--0--3--0--3------|
 -----0--0--0--0-----------|-----7--7--7--7--8--8--8--|--8--7--0--3--0---------|

PM PM PM PM PM PM PM PM PM PM PM PM PM PM PM PM
[E] [E] [E] [E] [E] [E] [E] [E] [E] [E] [E] [E] [E] [E] [E] [E]  
 
 --------------------------|--------------------------|
 --------------------------|--------------------------|
 --------------------------|--------------------------|
 --------------------------|--------------------------|
 --5--4--3--0--4--3--1--0--|--4--3--1--0--3--2--1--0--|
 --5--4--3--0--4--3--1--0--|--4--3--1--0--3--2--1--0--|

PM PM PM PM PM
[E] [E] [E] [E] [E] [E] [E] [E] [E] [E] [E] [E] [E] [E] [E] [E]  
 
 --------------------------|--------------------------|
 --------------------------|--------------------------|
 --------------------------|--------------------------|
 --------------------------|--------------------------|
 --5--------0-----0--------|-----0-----0-----3--4--3--|
 --5--0--0--0--0--0--------|-----0--0--0--0--3--4--3--|

PM PM PM PM PM
[E] [E] [E] [E] [E] [E] [E] [E] [E] [E] [E] [E] [E] [E] [E] [E]  
 
 --------------------------|--------------------------|
 --------------------------|--------------------------|
 --------------------------|--------------------------|
 --------------------------|--------------------------|
 --6--------0-----0--------|-----0-----0-----3--4--3--|
 --6--0--0--0--0--0--------|-----0--0--0--0--3--4--3--|

PM PM PM PM PM PM PM PM
E E E E E E E S S E E E E E E E E
 
 -----------------------------|--------------------------|
 -----------------------------|--------------------------|
 -----------------------------|--------------------------|
 -----------------------------|--------------------------|
 --6--------0-----0--0--------|-----0-----0-----3--4--3--|
 --6--0--0--0--0--0--0--0--0--|--0--0--0--0--0--3--4--3--|

PM PM PM PM PM PM PM
E E E E E E E S S E E E E E Q.
 
 -----------------------------|------------------------|
 -----------------------------|------------------------|
 -----------------------------|------------------------|
 -----------------------------|--8--7-----3-----5------|
 --6--------0-----0--0--------|--8--7--0--3--0--3------|
 --6--0--0--0--0--0--0--0--0--|--8--7--0--3--0---------|

PM PM PM PM PM PM PM PM PM PM PM PM
E S S E E E E E E E S S E E E E E E
 
 -----------------------------|-----------------------------|
 -----------------------------|-----------------------------|
 -----------------------------|-----------------------------|
 -----------------------------|-----------------------------|
 --------------5-----4--------|--------------5-----4--------|
 --0--0--0--0--5--0--4--0--0--|--0--0--0--0--5--0--4--0--0--|

PM PM PM PM PM PM PM PM PM PM PM PM PM PM
E S S E E E E E E E E E E E E E E
 
 -----------------------------|--------------------------|
 -----------------------------|--------------------------|
 -----------------------------|--------------------------|
 -----------------------------|--------------------------|
 --------------5-----4--------|--5--4--3--0--4--3--1--0--|
 --0--0--0--0--5--0--4--0--0--|--5--4--3--0--4--3--1--0--|

PM PM PM PM PM PM PM PM PM PM PM PM
E S S E E E E E E E S S E E E E E E
 
 -----------------------------|-----------------------------|
 -----------------------------|-----------------------------|
 -----------------------------|-----------------------------|
 -----------------------------|-----------------------------|
 --------------5-----4--------|--------------5-----4--------|
 --0--0--0--0--5--0--4--0--0--|--0--0--0--0--5--0--4--0--0--|

PM PM PM PM PM PM PM PM PM PM PM PM PM PM
E S S E E E E E E E E E E E E E E
 
 -----------------------------|--------------------------|
 -----------------------------|--------------------------|
 -----------------------------|--------------------------|
 -----------------------------|--------------------------|
 --------------5-----4--------|--5--4--3--0--4--3--1--0--|
 --0--0--0--0--5--0--4--0--0--|--5--4--3--0--4--3--1--0--|

PM PM PM PM PM PM PM PM
[E] [E] [E] [E] [E] [E] [E] [E] [E] [E] [E] [E] [E] [E] [E] [E]  
 
 --------------------------|--------------------------|
 --------------------------|--------------------------|
 --------------------------|--------------------------|
 --------------------------|--------------------------|
 --0--0--0--5--0--4--0--0--|--0--0--0--5--0--4--0--0--|
 --0--0--0--5--0--4--0--0--|--0--0--0--5--0--4--0--0--|

PM PM PM PM PM PM PM PM PM PM PM PM
[E] [E] [E] [E] [E] [E] [E] [E] [E] [E] [E] [E] [E] [E] [E] [E]  
 
 --------------------------|--------------------------|
 --------------------------|--------------------------|
 --------------------------|--------------------------|
 --------------------------|--------------------------|
 --0--0--0--5--0--4--0--0--|--5--4--3--0--4--3--1--0--|
 --0--0--0--5--0--4--0--0--|--5--4--3--0--4--3--1--0--|

PM PM PM PM PM PM PM PM
[E] [E] [E] [E] [E] [E] [E] [E] [E] [E] [E] [E] [E] [E] [E] [E]  
 
 --------------------------|--------------------------|
 --------------------------|--------------------------|
 --------------------------|--------------------------|
 --------------------------|--------------------------|
 --0--0--0--5--0--4--0--0--|--0--0--0--5--0--4--0--0--|
 --0--0--0--5--0--4--0--0--|--0--0--0--5--0--4--0--0--|

PM PM PM PM PM PM PM PM PM PM PM PM
[E] [E] [E] [E] [E] [E] [E] [E] [E] [E] [E] [E] [E] [E] [E] [E]  
 
 --------------------------|--------------------------|
 --------------------------|--------------------------|
 --------------------------|--------------------------|
 --------------------------|--------------------------|
 --0--0--0--5--0--4--0--0--|--5--4--3--0--4--3--1--0--|
 --0--0--0--5--0--4--0--0--|--5--4--3--0--4--3--1--0--|

PM PM PM PM PM PM PM PM PM PM
E S E S E E S E S E E E E E E E E E
 
 --------------------------------|--------------------------|
 --------------------------------|--------------------------|
 --------------------------------|--------------------------|
 --------------------------------|-----3-----3-----3-----3--|
 --0--0--0--0--0--0--0--0--0--0--|--5-----5-----5-----5-----|
 --0--0--0--0--0--0--0--0--0--0--|--------------------------|

[E] [E] [E] [E] [E] [E] [E] [E] [E] [E] [E] [E] [E] [E] [E] [E]  
 
 --------------------------|---------------------------|
 --------------------------|---------------------------|
 --------------------------|---------------------------|
 -----3-----3-----3-----3--|------3-----3-----3-----3--|
 --0-----0-----0-----0-----|--0h--1--1-----1-----1-----|
 --------------------------|---------------------------|

PM PM PM PM PM PM PM PM PM PM
E S E S E E S E S E E E E E E E E E
 
 --------------------------------|--------------------------|
 --------------------------------|--------------------------|
 --------------------------------|--------------------------|
 --------------------------------|-----3-----3-----3-----3--|
 --0--0--0--0--0--0--0--0--0--0--|--5-----5-----5-----5-----|
 --0--0--0--0--0--0--0--0--0--0--|--------------------------|

[E] [E] [E] [E] [E] [E] [E] [E] [E] [E] [E] [E] [E] [E] [E] [E]  
 
 --------------------------|---------------------------|
 --------------------------|---------------------------|
 --------------------------|---------------------------|
 -----3-----3-----3-----3--|------3-----3-----3-----3--|
 --0-----0-----0-----0-----|--0h--1--1-----1-----1-----|
 --------------------------|---------------------------|

PM PM PM PM PM PM PM PM PM PM PM PM
E S S E E E E E E E S S E E E E E E
 
 -----------------------------|-----------------------------|
 -----------------------------|-----------------------------|
 -----------------------------|-----------------------------|
 -----------------------------|-----------------------------|
 --------------5-----4--------|--------------5-----4--------|
 --0--0--0--0--5--0--4--0--0--|--0--0--0--0--5--0--4--0--0--|

PM PM PM PM PM PM PM PM PM PM PM PM PM PM
E S S E E E E E E E E E E E E E E
 
 -----------------------------|--------------------------|
 -----------------------------|--------------------------|
 -----------------------------|--------------------------|
 -----------------------------|--------------------------|
 --------------5-----4--------|--5--4--3--0--4--3--1--0--|
 --0--0--0--0--5--0--4--0--0--|--5--4--3--0--4--3--1--0--|

PM PM PM PM PM PM PM PM PM PM PM PM
E S S E E E E E E E S S E E E E E E
 
 -----------------------------|-----------------------------|
 -----------------------------|-----------------------------|
 -----------------------------|-----------------------------|
 -----------------------------|-----------------------------|
 --------------5-----4--------|--------------5-----4--------|
 --0--0--0--0--5--0--4--0--0--|--0--0--0--0--5--0--4--0--0--|

PM PM PM PM PM PM PM PM PM PM PM PM PM PM
E S S E E E E E E E E E E E E E E
 
 -----------------------------|--------------------------|
 -----------------------------|--------------------------|
 -----------------------------|--------------------------|
 -----------------------------|--------------------------|
 --------------5-----4--------|--5--4--3--0--4--3--1--0--|
 --0--0--0--0--5--0--4--0--0--|--5--4--3--0--4--3--1--0--|

PM PM PM PM PM PM PM PM
[E] [E] [E] [E] [E] [E] [E] [E] [E] [E] [E] [E] [E] [E] [E] [E]  
 
 --------------------------|--------------------------|
 --------------------------|--------------------------|
 --------------------------|--------------------------|
 --------------------------|--------------------------|
 --0--0--0--5--0--4--0--0--|--0--0--0--5--0--4--0--0--|
 --0--0--0--5--0--4--0--0--|--0--0--0--5--0--4--0--0--|

PM PM PM PM PM PM PM PM PM PM PM PM
[E] [E] [E] [E] [E] [E] [E] [E] [E] [E] [E] [E] [E] [E] [E] [E]  
 
 --------------------------|--------------------------|
 --------------------------|--------------------------|
 --------------------------|--------------------------|
 --------------------------|--------------------------|
 --0--0--0--5--0--4--0--0--|--5--4--3--0--4--3--1--0--|
 --0--0--0--5--0--4--0--0--|--5--4--3--0--4--3--1--0--|

PM PM PM PM PM PM PM PM
[E] [E] [E] [E] [E] [E] [E] [E] [E] [E] [E] [E] [E] [E] [E] [E]  
 
 --------------------------|--------------------------|
 --------------------------|--------------------------|
 --------------------------|--------------------------|
 --------------------------|--------------------------|
 --0--0--0--5--0--4--0--0--|--0--0--0--5--0--4--0--0--|
 --0--0--0--5--0--4--0--0--|--0--0--0--5--0--4--0--0--|

PM PM PM PM PM PM PM PM PM PM PM PM
[E] [E] [E] [E] [E] [E] [E] [E] [E] [E] [E] [E] [E] [E] [E] [E]  
 
 --------------------------|--------------------------|
 --------------------------|--------------------------|
 --------------------------|--------------------------|
 --------------------------|--------------------------|
 --0--0--0--5--0--4--0--0--|--5--4--3--0--4--3--1--0--|
 --0--0--0--5--0--4--0--0--|--5--4--3--0--4--3--1--0--|

PM PM PM PM PM PM PM PM PM PM
E S E S E E S E S E E E E E E E E E
 
 --------------------------------|--------------------------|
 --------------------------------|--------------------------|
 --------------------------------|--------------------------|
 --------------------------------|-----3-----3-----3-----3--|
 --0--0--0--0--0--0--0--0--0--0--|--5-----5-----5-----5-----|
 --0--0--0--0--0--0--0--0--0--0--|--------------------------|

[E] [E] [E] [E] [E] [E] [E] [E] [E] [E] [E] [E] [E] [E] [E] [E]  
 
 --------------------------|---------------------------|
 --------------------------|---------------------------|
 --------------------------|---------------------------|
 -----3-----3-----3-----3--|------3-----3-----3-----3--|
 --0-----0-----0-----0-----|--0h--1--1-----1-----1-----|
 --------------------------|---------------------------|

PM PM PM PM PM PM PM PM PM PM
E S E S E E S E S E E E E E E E E E
 
 --------------------------------|--------------------------|
 --------------------------------|--------------------------|
 --------------------------------|--------------------------|
 --------------------------------|-----3-----3-----3-----3--|
 --0--0--0--0--0--0--0--0--0--0--|--5-----5-----5-----5-----|
 --0--0--0--0--0--0--0--0--0--0--|--------------------------|

[E] [E] [E] [E] [E] [E] [E] [E] [E] [E] [E] [E] [E] [E] [E] [E]  
 
 --------------------------|---------------------------|
 --------------------------|---------------------------|
 --------------------------|---------------------------|
 -----3-----3-----3-----3--|------3-----3-----3-----3--|
 --0-----0-----0-----0-----|--0h--1--1-----1-----1-----|
 --------------------------|---------------------------|

PM PM PM PM PM PM PM PM PM PM PM PM PM PM PM PM PM PM PM PM PM PM
E S E S E E S E S E S S S S S S E S S S S S S E
 
 --------------------------------|------------------------------------------|
 --------------------------------|------------------------------------------|
 --------------------------------|------------------------------------------|
 --------------------------------|------------------------------------------|
 --0--0--0--0--0--0--0--0--0--0--|--0--0--0--0----0--0--0--0--0--0----0--0--|
 --0--0--0--0--0--0--0--0--0--0--|--0--0--0--0----0--0--0--0--0--0----0--0--|

PM PM PM PM PM PM PM PM PM PM PM PM PM PM PM PM PM PM PM PM PM PM
E S E S E E S E S E S S S S S S E S S S S S S E
 
 --------------------------------|------------------------------------------|
 --------------------------------|------------------------------------------|
 --------------------------------|------------------------------------------|
 --------------------------------|------------------------------------------|
 --0--0--0--0--0--0--0--0--0--0--|--0--0--0--0----0--0--0--0--0--0----0--0--|
 --0--0--0--0--0--0--0--0--0--0--|--0--0--0--0----0--0--0--0--0--0----0--0--|

PM PM PM PM PM PM PM PM PM PM PM PM PM PM PM PM PM PM PM PM PM PM
E S E S E E S E S E S S S S S S E S S S S S S E
 
 --------------------------------|------------------------------------------|
 --------------------------------|------------------------------------------|
 --------------------------------|------------------------------------------|
 --------------------------------|------------------------------------------|
 --0--0--0--0--0--0--0--0--0--0--|--0--0--0--0----0--0--0--0--0--0----0--0--|
 --0--0--0--0--0--0--0--0--0--0--|--0--0--0--0----0--0--0--0--0--0----0--0--|

PM PM PM PM PM PM PM PM PM PM PM PM PM PM PM PM PM PM PM PM PM PM
E S E S E E S E S E S S S S S S E S S S S S S E
 
 --------------------------------|------------------------------------------|
 --------------------------------|------------------------------------------|
 --------------------------------|------------------------------------------|
 --------------------------------|------------------------------------------|
 --0--0--0--0--0--0--0--0--0--0--|--0--0--0--0----0--0--0--0--0--0----0--0--|
 --0--0--0--0--0--0--0--0--0--0--|--0--0--0--0----0--0--0--0--0--0----0--0--|

PM PM PM PM PM PM PM PM PM PM PM PM PM PM PM PM PM PM PM
E S E S E E S E S E S S S S S S E E S E S E
 
 --------------------------------|-------------------------------------|
 --------------------------------|-------------------------------------|
 --------------------------------|-------------------------------------|
 --------------------------------|-------------------------------------|
 --0--0--0--0--0-----0--0--0--0--|--0--0--0--0----0--0-----0--0--0--0--|
 --0--0--0--0--0-----0--0--0--0--|--0--0--0--0----0--0-----0--0--0--0--|

PM PM PM PM PM PM PM PM PM PM PM PM PM PM PM PM PM PM PM
E S E S E E S E S E S S S S S S E S S S S Q
 
 --------------------------------|-----------------------------------------|
 --------------------------------|-----------------------------------------|
 --------------------------------|-----------------------------------------|
 --------------------------------|-----------------------------------------|
 --0--0--0--0--0-----0--0--0--0--|--0--0--0--0----0--0--0--0--0--0--12\----|
 --0--0--0--0--0-----0--0--0--0--|--0--0--0--0----0--0--0--0--0--0--12\----|

PM PM PM PM PM PM PM PM PM PM PM PM PM PM PM PM PM PM PM
E S E S E E S E S E S S S S S S E E S E S E
 
 --------------------------------|-------------------------------------|
 --------------------------------|-------------------------------------|
 --------------------------------|-------------------------------------|
 --------------------------------|-------------------------------------|
 --0--0--0--0--0-----0--0--0--0--|--0--0--0--0----0--0-----0--0--0--0--|
 --0--0--0--0--0-----0--0--0--0--|--0--0--0--0----0--0-----0--0--0--0--|

PM PM PM PM PM PM PM PM PM PM PM PM PM PM PM PM PM PM PM PM PM
E S E S E E S E S E S S S S S S E S S S S S S E
 
 --------------------------------|------------------------------------------||
 --------------------------------|------------------------------------------||
 --------------------------------|------------------------------------------||
 --------------------------------|------------------------------------------||
 --0--0--0--0--0-----0--0--0--0--|--0--0--0--0----0--0--0--0--0--0----0--0--||
 --0--0--0--0--0-----0--0--0--0--|--0--0--0--0----0--0--0--0--0--0----0--0--||

Duration Legend
 
 ---------------

W - whole
H - half
Q - quarter
E - 8th
S - 16th
T - 32nd
X - 64th
. - note dotted
|-n-| - n-tuplets
Tablature Legend
 
 ----------------

L - tied note
x - dead note
g - grace note
(n) - ghost note
> - accentuded note
NH - natural harmonic
AH - artificial harmonic
TH - tapped harmonic
SH - semi harmonic
PH - pitch harmonic
h - hammer on
p - pull off
b - bend
br - bendRelease
pb - preBend
pbr - preBendRelease
brb - bendReleaseBend
\n/ - tremolo bar dip
\n - tremolo bar dive
-/n - tremolo bar Release up
/n\ - tremolo bar inverted dip
/n - tremolo bar return
-\n - tremolo bar Release down
S - shift slide
s - legato slide
/ - slide into from below or out of upwards
\ - slide into from above or out of downwards
~ - vibrato
W - wide vibrato
tr - trill
TP - tremolo picking
T - tapping
S - slap
P - pop
< - fade in
^ - brush up
v - brush down

Important: The song above is NOT stored on the Chordie server. The original song is hosted at www.azchords.com. Chordie works as a search engine and provides on-the-fly formatting. Chordie does not index songs against artists'/composers' will. To remove this song please click here.

Text color:
Chord color:
Chord grids: 
Font size:    
Page size: 

E
Rate #1 of 1 versions

Jango Player

Login - add to songbook

SHARE PAGE  




You need to log in to post comments