Guitar Tabs, Chords and Lyrics
Server problems seems to be fixed. Chordie has been experiencing problems with songs disappearing. These issues now seems to be fixed, but still verifying the fix. If you find anything strange, please email admin@chordie.com.


Risky Business  Bury Your Dead

Gtr I (A# F A# D# G C) - 'Slim'
Gtr II (A# F A# D# G C) - 'Eric Ellis'
Intro
Q=160
9/8 4/4
Gtrs I, II
E H. +Q E Q +E E Q +E E E E E S S S S S S S S 3x
 
 ||------------||------------------|--------------------------------------||
 ||------------||o-----------------|------15-15-15-15-15-15-15-15-15-15--o||
 ||------------||------------------|--------------------------------------||
 ||------------||------------------|------12-12-12-12-12-12-12-12-12-12---||
 ||---1-0--(0)-||o-1-0-(0)-1-3-(3)-|-1--0--------------------------------o||
 ||---1-0--(0)-||--1-0-(0)-1-3-(3)-|-1--0---------------------------------||

Pre-Verse
Q=154 Q
Gtr I[5/4]
PM| PM PM|
E E E E E E E E E E E E E Q Q E
 
 ||-----------------|-----------------|
 ||-----------------|-----------------|
 ||-----------------|-----------------|
 ||-----------------|-----------------|
 ||-----------------|-----------------|
 ||-1-0-0-1-0-1S3-3-|-3-3-0-0-0-------|

Verse
=160
[4/4] Gtrs I, II[5/4]
PM PM PM| ~ PM--| PM| PM|
E E E E E E E E +E E E E S S E E E E E
 
 |-----------------|-----------------------------||
 |-----------------|-----------------------------||
 |-----------------|-----------------------------||
 |-----------------|-----------------------------||
 |-1---2---3-------|---------------------0-------||
 |-1-0-2-0-3-0-0-1-|-(1)--0-0-0-----0-0--0-0-0---||

[4/4] PM PM| ~ PM----| PM| PM| PM[3/4]
E E E E E E +E E E E S S E E E E E E E E E E E Q +H.
 
 ||--------------------|--------------------||---------------|------||
 ||o-------------------|-------------------o||---------------|------||
 ||--------------------|--------------------||---------------|------||
 ||--------------------|--------------------||---------------|------||
 ||o-2---3-------------|-------------0-----o||-2---3-----1-0-|-(0)--||
 ||--2-0-3-0-0-1-(1)-0-|-0-0-----0-0-0-0-0--||-2-0-3-3-3-1-0-|-(0)--||

Q=158
[4/4] E Q +E E Q +E E E E E S S S S S S S S 3x
 
 ||--------------------|------------------------------------||
 ||o-------------------|-----15-15-15-15-15-15-15-15-15-15-o||
 ||--------------------|------------------------------------||
 ||--------------------|-----12-12-12-12-12-12-12-12-12-12--||
 ||o-1-0--(0)-1-3--(3)-|-1-0-------------------------------o||
 ||--1-0--(0)-1-3--(3)-|-1-0--------------------------------||

Q=154 Q
Gtr I[5/4]
PM| PM PM|
E E E E E E E E E E E E E Q Q E
 
 ||-----------------|-------------------|
 ||-----------------|-------------------|
 ||-----------------|-------------------|
 ||-----------------|-------------------|
 ||-----------------|-------------------|
 ||-1-0-0-1-0-1S3-3-|-3-3-0-0-0---------|

=158
Gtrs I, II[4/4]
PM PM PM| ~ PM----| PM| PM|
E E E E E E E E +E E E E S S E E E E E
 
 |-----------------------|-------------------|
 |-----------------------|-------------------|
 |-----------------------|-------------------|
 |-----------------------|-------------------|
 |-1---2---3-------------|-------------0-----|
 |-1-0-2-0-3-0-0-1-(1)-0-|-0-0-----0-0-0-0-0-|

PM PM| ~ PM----| PM| PM|[3/4]
E E E E E E +E E E E S S E E E E E E E E E E E Q +H.
 
 ||--------------------|---------------------||----------------|-----|
 ||o-------------------|--------------------o||----------------|-----|
 ||--------------------|---------------------||----------------|-----|
 ||--------------------|---------------------||----------------|-----|
 ||o-2---3-------------|--------------0-----o||-2---3------1-0-|-(0)-|
 ||--2-0-3-0-0-1-(1)-0-|-0-0------0-0-0-0-0--||-2-0-3-3--3-1-0-|-(0)-|

1.
9/8 4/4 7/8
 
 PM----------|

E E S S q Q Q E E E E E E E E E E q E E E +E E E E S S E S S E
 
 ||----------------|-----------------|------------------|----------------------||
 ||o---------------|-----------------|------------------|---------------------o||
 ||----------------|-----------------|------------------|----------------------||
 ||----------------|-----------------|------------------|----------------------||
 ||o-7S6-----3-5-5-|---------------3S|=4--3S5-----------|---------------------o||
 ||--7S6-----3-5-5-|-0-0-0-0-0-0-0-3S|=4--3S5-0-3-1-(1)-|--0-0-0-0--0-0-0-0-0--||

2.
5/4 9/8
E H. +S +S Q E E S S q Q Q
 
 ||----------------------||------------------|
 ||----------------------||o-----------------|
 ||----------------------||------------------|
 ||----------------------||------------------|
 ||-1-0------(0)-(0)-15S=||o=7S6-----3--5--5-|
 ||-1-0------(0)-(0)-15S=||==7S6-----3--5--5-|

1.
4/4 7/8
 
 PM-----------|

E E E E E E E E E E q E E Q E E E S S E S S E
 
 |------------------|---------------|----------------------||
 |------------------|---------------|---------------------o||
 |------------------|---------------|----------------------||
 |------------------|---------------|----------------------||
 |----------------3S|=4-3S5---------|---------------------o||
 |-0--0-0-0-0-0-0-3S|=4-3S5---0-3-1-|--0-0-0-0-0-0-0-0--0--||

Pre-Chorus
2.
4/4 11/8
E H. +E +E +S +S +E E E E E E E E E E E E E H
 
 ||---------------|---------------------------|-------------------||
 ||---------------|---------------------------|-------------------||
 ||---------------|---------------------------|-------------------||
 ||---------------|---------------------------|-------------------||
 ||-1-0-------(0)-|-(0)-(0)-(0)-(0)-----------|-------------------||
 ||-1-0-------(0)-|-(0)-(0)-(0)-(0)-3-3-3---3-|-3-3---3-3-3-------||

Verse
4/4 9/8
E E E E E E E E E E E E E E E E E E S S q Q Q
 
 ||-----------------|-----------------||-------------------|
 ||-----------------|-----------------||o------------------|
 ||-----------------|-----------------||-------------------|
 ||-----------------|-----------------||-------------------|
 ||-----------------|-----------------||o-7S6-----3--5---5-|
 ||-3-3-3---3-3-3---|-3-3-3-3-3-4-4-4-||--7S6-----3--5---5-|

1.
4/4 7/8
 
 PM-----------|

E E E E E E E E E E q E E Q E E E S S E S S E
 
 |------------------|---------------|------------------------||
 |------------------|---------------|-----------------------o||
 |------------------|---------------|------------------------||
 |------------------|---------------|------------------------||
 |----------------3S|=4-3S5---------|-----------------------o||
 |-0-0-0-0-0--0-0-3S|=4-3S5---0-3-1-|-0-0-0--0-0-0-0-0-0-----||

Pre-Chorus
2.
4/4 11/8
E H. +E +E +S +S +E E E E E E E E E E E E E H
 
 ||---------------|---------------------------|--------------------||
 ||---------------|---------------------------|--------------------||
 ||---------------|---------------------------|--------------------||
 ||---------------|---------------------------|--------------------||
 ||-1-0-------(0)-|-(0)-(0)-(0)-(0)-----------|--------------------||
 ||-1-0-------(0)-|-(0)-(0)-(0)-(0)-3-3-3---3-|-3-3---3-3-3--------||

Chorus
Q=150
[4/4]  
 
 PM----------------------|

E E E E E E E E E E E E E E E E E E E E E E E E E E E E E E Q
 
 ||-----------------|-----------------||------------------|----------------|
 ||-----------------|-----------------||o-----------------|----------------|
 ||-----------------|-----------------||------------------|----------------|
 ||-----------------|-----------------||------------------|----------------|
 ||-----------------|-----------------||o-----------------|----------------|
 ||-3-3-3---3-3-3---|-3-4-4-4-5-5-6-7-||--0-0-0---0-0-0---|-0-0-0-0-0------|

1. 2.
 
 PM--------------------------|

E E E E E E E E E E E E E E Q E E E E E E E E
 
 ||-----------------|------------------||------------------||
 ||-----------------|-----------------o||------------------||
 ||-----------------|------------------||------------------||
 ||-----------------|------------------||------------------||
 ||-----------------|-----------------o||------------------||
 ||-0-0-0---0-0-0---|-0-0-0-0-0-0------||--0-0-0-0-0-0-0---||

Pre-Verse
Q=160
Gtr I
 
 PM----| PM----------|

E S S S S q q E +E E E E E E E E
 
 ||---------------------|-------------------|
 ||---------------------|-------------------|
 ||---------------------|-------------------|
 ||---------------------|-------------------|
 ||---------------------|-------------------|
 ||-0-0-0-0-0-5--1--1b2-|-(1)-0-0-0-0-0-0-0-|

|
| Gtr II
| W W
 
 ||---------------------|-------------------|
 ||---------------------|-------------------|
 ||---------------------|-------------------|
 ||---------------------|-------------------|
 ||---------------------|-------------------|
 ||---------------------|-------------------|
 PM----| PM------------|

E S S S S q q E +E E E E E E E E
 
 |---------------------|----------------------||
 |---------------------|----------------------||
 |---------------------|----------------------||
 |---------------------|----------------------||
 |---------------------|----------------------||
 |-0-0-0-0-0-5--1--1b2-|-(1)-0-0-0--0--0-0-0--||

|
| W H H
 
 |---------------------|----------------------||
 |---------------------|----------------------||
 |---------------------|----------------------||
 |---------------------|----------------------||
 |---------------------|-----------12\--------||
 |---------------------|-----------12\--------||

Gtrs I, II
 
 PM----| PM----------|

E S S S S q q E +E E E E E E E E
 
 ||----------------------|---------------------||
 ||o---------------------|--------------------o||
 ||----------------------|---------------------||
 ||----------------------|---------------------||
 ||o---------------------|--------------------o||
 ||--0-0-0-0-0-5--1--1b2-|-(1)-0-0-0-0-0-0-0---||

2nd Verse
 
 PM----| PM----| PM

E S S S S q q E +E E E E E E E E 3x
 
 ||----------------------|--------------------||
 ||o---------------------|-------------------o||
 ||----------------------|--------------------||
 ||----------------------|--------------------||
 ||o---------------------|-------------------o||
 ||--0-0-0-0-0-5--1--1b2-|-(1)-0-0-0-0-0-0-0--||

9/8
 
 PM----| PM----------|

E S S S S q q E +E E E E E E E E E
 
 |---------------------|-----------------------||
 |---------------------|-----------------------||
 |---------------------|-----------------------||
 |---------------------|-----------------------||
 |---------------------|-----------------------||
 |-0-0-0-0-0-5--1--1b2-|-(1)-0-0-0-0-0-0-0-0---||

Pre-Chorus
4/4 9/8
E E E E E E E E E E E E H E E E E E E E E Q E E E E E E E
 
 ||-----------------|--------------|-----------------|------------------||
 ||-----------------|--------------|-----------------|------------------||
 ||-----------------|--------------|-----------------|------------------||
 ||-----------------|--------------|-----------------|------------------||
 ||-3-3-3---3-3-3---|-3-3-3--------|-3-3-3---3-3-3---|-3S5-5-5-5-6-6-6--||
 ||-3-3-3---3-3-3---|-3-3-3--------|-3-3-3---3-3-3---|-3S5-5-5-5-6-6-6--||

Verse
[4/4] PM----|
E S S S S q q E +E E E E E E E E 4x
 
 ||----------------------|---------------------||
 ||o---------------------|--------------------o||
 ||----------------------|---------------------||
 ||----------------------|---------------------||
 ||o---------------------|--------------------o||
 ||--0-0-0-0-0-5--1--1b2-|-(1)-0-0-0---0-0-0---||

Pre-Chorus
9/8 4/4
[E] [E] [E] [E] [E] [E] [E] [E] [E] [E] [E] [E] [E] [B]  
 
 |-------------------|------------||
 |-------------------|------------||
 |-------------------|------------||
 |-------------------|------------||
 |---3-3-3---3-3-3---|-3--3-3-----||
 |---3-3-3---3-3-3---|-3--3-3-----||

Q
9/8
E E E E E E E E E E E E E E E E S S
 
 ||-----------------|---------------------|
 ||-----------------|---------------------|
 ||-----------------|---------------------|
 ||-----------------|---------------------|
 ||-3-3-3---3-3-3---|-3S4-4-4-4-4-4-4-4---|
 ||-3-3-3---3-3-3---|-3S4-4-4-4-4-4-4-4---|

Chorus
=150
[4/4]  
 
 PM------------------------|

E E E E E E E E E E E E E E Q
 
 ||------------------|-----------------||
 ||o-----------------|-----------------||
 ||------------------|-----------------||
 ||------------------|-----------------||
 ||o-----------------|-----------------||
 ||--0-0-0---0-0-0---|-0-0-0-0-0-------||

1. 2. Q=160
3/4 9/8
 
 PM----------| PM--------| PM--------|

E E E E E E E E E E E E E E Q E E E E E E E H. +E. +S
 
 |-----------------|-----------------||-------------|----------------------||
 |-----------------|----------------o||-------------|----------------------||
 |-----------------|-----------------||-------------|----------------------||
 |-----------------|-----------------||-------------|----------------------||
 |-----------------|----------------o||-------------|-1-0-------(0)-(0)----||
 |-0-0-0---0-0-0---|-0-0-0-0-0-0-----||-0-0-0-0-0-0-|-1-0-------(0)-(0)----||

[4/4] E Q +E E Q +E E E E E S S S S S S S S 3x
 
 ||--------------------|------------------------------------||
 ||o-------------------|-----15-15-15-15-15-15-15-15-15-15-o||
 ||--------------------|------------------------------------||
 ||--------------------|-----12-12-12-12-12-12-12-12-12-12--||
 ||o-1-0--(0)-1-3--(3)-|-1-0-------------------------------o||
 ||--1-0--(0)-1-3--(3)-|-1-0--------------------------------||

Gtr I Gtrs I, II
 
 PM| PM PM--------------|

E E E E E E E E E S S E E E E E E E
 
 |-------------------|--------------------|
 |-------------------|--------------------|
 |-------------------|--------------------|
 |-------------------|--------------------|
 |-------------------|--------------------|
 |-1-0-0-1-0-1S3-3-3-|-3-0-0-0-0-0-0-0-0--|

Gtr I Gtrs I, II Gtr I
 
 PM------------------------------|

E E E E E E E E S S E E E E E E E 3x E E E E E E E E
 
 ||------------------|--------------------||-----------------||
 ||o-----------------|-------------------o||-----------------||
 ||------------------|--------------------||-----------------||
 ||------------------|--------------------||-----------------||
 ||o-----------------|-------------------o||-----------------||
 ||----0-0-0---0-0-0-|-0-0-0-0-0-0-0-0-0--||---3-3-3-3-4-6-7-||

Gtrs I, II
 
 PM--------------| PM--------------------------------|

S S E E E E E E E E E E E E E E E 3x S S E E E E E E E
 
 ||--------------------|------------------||-------------------||
 ||o-------------------|-----------------o||-------------------||
 ||--------------------|------------------||-------------------||
 ||--------------------|------------------||-------------------||
 ||o-------------------|-----------------o||-------------------||
 ||--0-0-0-0-0-0-0-0-0-|---0-0-0---0-0-0--||-0-0-0-0-0-0-0-0-0-||

Outro
Q=150
9/8 4/4
 
 PM------------------------|

E E E E E E E E E E E E E E E E E E E E E E E Q
 
 |-------------------||------------------|----------------|
 |-------------------||o-----------------|----------------|
 |-------------------||------------------|----------------|
 |-------------------||------------------|----------------|
 |-------------------||o-----------------|----------------|
 |---3-3-3-3-2-6-7---||--0-0-0---0-0-0---|-0-0-0-0-0------|

1. 2.
 
 PM--------------------------|

E E E E E E E E E E E E E E Q E E E E E E E E
 
 |-----------------|-----------------||-------------------|
 |-----------------|----------------o||-------------------|
 |-----------------|-----------------||-------------------|
 |-----------------|-----------------||-------------------|
 |-----------------|----------------o||-------------------|
 |-0-0-0---0-0-0---|-0-0-0-0-0-0-----||-0-0-0-0-0-0-0-----|

Q.=82
9/8
 
 PM---------------

Wx4 E E E E E E E E E
 
 ||-------------|-------------------|
 ||-------------|-------------------|
 ||-------------|-------------------|
 ||-------------|-------------------|
 ||-------------|-------------------|
 ||-------------|---0-0-0---0-0-0---|

[4/4]  
 
 ---------| PM--------------------------|

E E E E E E Q E E E E E E E E E E E E E E Q
 
 |----------------|-----------------|-----------------|
 |----------------|-----------------|-----------------|
 |----------------|-----------------|-----------------|
 |----------------|-----------------|-----------------|
 |----------------|-----------------|-----------------|
 |-0-0-0-0-0------|-0-0-0---0-0-0---|-0-0-0-0-0-0-----|
 PM------------------------| PM--| PM--| PM--------|

E E E E E E E E E E E E E E +Q E E E E E E E E E E E E E E Q
 
 |-----------------|-----------21-(21)-|-------21-------21-|-------------21---|
 |-----------------|-------------------|-------------------|------------------|
 |-----------------|-------------------|-------------------|------------------|
 |-----------------|-------------------|-------------------|------------------|
 |-----------------|-------------------|-------------------|------------------|
 |-0-0-0---0-0-0---|-0-0-0-0-0---------|-0-0-0----0-0-0----|-0-0-0-0-0-0------|
 PM--| PM--| PM--------| PM--| PM--| PM--------|

E E E E E E E E E E E E E E Q E E E E E E E E E E E E E E Q
 
 |-------21-------21-|-------------21--|-------21-------21-|-------------21--||
 |-------------------|-----------------|-------------------|-----------------||
 |-------------------|-----------------|-------------------|-----------------||
 |-------------------|-----------------|-------------------|-----------------||
 |-------------------|-----------------|-------------------|-----------------||
 |-0-0-0----0-0-0----|-0-0-0-0-0-0-----|-0-0-0----0-0-0----|-0-0-0-0-0-0-----||
 PM--| PM--| PM--------| PM--| PM--| PM--------|

E E E E E E E E E E E E E E Q E E E E E E E E E E E E E E Q
 
 |-------21-------21-|-------------21--|-------21-------21-|-------------21--||
 |-------------------|-----------------|-------------------|-----------------||
 |-------------------|-----------------|-------------------|-----------------||
 |-------------------|-----------------|-------------------|-----------------||
 |-------------------|-----------------|-------------------|-----------------||
 |-0-0-0----0-0-0----|-0-0-0-0-0-0-----|-0-0-0----0-0-0----|-0-0-0-0-0-0-----||
 PM--| PM--| PM--------|

E E E E E E E E E E E E E E Q
 
 |-------21-------21-|-------------21-*|
 |-------------------|----------------*|
 |-------------------|----------------*|
 |-------------------|----------------*|
 |-------------------|----------------*|
 |-0-0-0----0-0-0----|-0-0-0-0-0-0----*|

Duration Legend
 
 ---------------
 W - whole; H - half; Q - quarter; E - 8th; S - 16th; T - 32nd; X - 64th; a - acciaccatura

+ - note tied to previous; . - note dotted; .. - note double dotted
Uncapitalized letters represent notes that are staccato (1/2 duration)
Irregular groupings are notated above the duration line
Duration letters will always appear directly above the note/fret number it represents the
duration for. Duration letters with no fret number below them represent rests. Multi-
bar rests are notated in the form Wxn, where n is the number of bars to rest for. Low
melody durations appear below the staff
Tablature Legend
 
 ----------------

h - hammer-on
p - pull-off
b - bend
pb - pre-bend
r - bend release (if no number after the r, then release immediately)
/\ - slide into or out of (from/to "nowhere")
s - legato slide
S - shift slide
<n> - natural harmonic
(n) - artificial harmonic
n(n) - tapped harmonic
~ - vibrato
tr - trill
T - tap
TP - trem. picking
PM - palm muting
\n/ - tremolo bar dip; n = amount to dip
\n - tremolo bar down
n/ - tremolo bar up
/n\ - tremolo bar inverted dip
= - hold bend; also acts as connecting device for hammers/pulls
<> - volume swell (louder/softer)
x - on rhythm slash represents muted slash
o - on rhythm slash represents single note slash
Misc Legend
 
 -----------

| - bar
|| - double bar
||o - repeat start
o|| - repeat end
*| - double bar (ending)
: - bar (freetime)
$ - Segno
& - Coda
Tempo markers - <E/E./Q/Q./H/H.> = BPM(8/16=s8/s16), where s8 = swing 8ths, s16 = swing 16ths

Important: The song above is NOT stored on the Chordie server. The original song is hosted at www.azchords.com. Chordie works as a search engine and provides on-the-fly formatting. Chordie does not index songs against artists'/composers' will. To remove this song please click here.

Text color:
Chord color:
Chord grids: 
Font size:    
Page size: 

B E
Rate #1 of 1 versions

Jango Player

Login - add to songbook

SHARE PAGE  




You need to log in to post comments