Guitar Tabs, Chords and Lyrics
Major upgrade!! After one year development the new version of Chordie is now online! Please give feedback.


The Poison Apple  Bury Your Dead

Gtr I (A E A D F# B) - 'Untitled'
Gtr II (A E A D F# B) - 'Slim'
Gtr III (A E A D F# B) - 'Eric Ellis'
Intro
Q=192
[4/4] Gtr I
[E] [E] [E] [E] [E] [E] [E] [E] [E] [E] [E] [E] [E] [E] [E] [E]  
 
 |------------------|-------------------|
 |----------------8-|--------------8-10-|
 |-10-0-9-0-7p5-0---|-0-10-9-0-7-9------|
 |------------------|-------------------|
 |------------------|-------------------|
 |------------------|-------------------|

[E] [E] [E] [E] [E] [E] [E] [E] [E] [E] [E] [E] [E] [E] [E] [E]  
 
 |--------------------|-------------------|
 |----------8-10-8----|-------8-----------|
 |-0-10-9-0--------10-|-0-7-9---10-9-7-0--|
 |--------------------|-------------------|
 |--------------------|-------------------|
 |--------------------|-------------------|

Chorus
Gtrs II, III
PM| PM| PM--| PM|
E E E E E E E E E E E E E E E E +E E E E Q E E E E Q E E E E
 
 |-----------------|-----------------|------------------|----------------|
 |-----------------|-----------------|------------------|----------------|
 |-----------------|-----------------|------------------|----------------|
 |-----------------|-----------------|-------6S7-7------|----------------|
 |-6-----4-----5---|---3-----4-3-1-0-|-(0)-0-4S5-5--0-0-|-0-0-0--0-0-0-0-|
 |-6-0-0-4-0-0-5-0-|-0-3-0-0-4-3-1-0-|-(0)-0--------0-0-|-0-0-0--0-0-0-0-|

[E] [E] [E] [E] [E] [E] [E] [E] [E] [E] [E] [E] [E] [E] [E] [E]  
 
 |-----------------|-----------------|
 |-----------------|-----------------|
 |-----------------|-----------------|
 |-----------------|-----------------|
 |-8-8-8-8-8-8-8-8-|-5-5-5-5-5-5-5-5-|
 |-8-8-8-8-8-8-8-8-|-5-5-5-5-5-5-5-5-|

[E] [E] [E] [E] [E] [E] [E] [E] [E] [E] [E] [E] [E] [E] [E] [E]  
 
 |------------------------|-------------------------|
 |------------------------|-------------------------|
 |------------------------|-------------------------|
 |-8S10-10-10-12-12-12-12-|-14-14-14-14-10-10-10-10-|
 |-6S=8--8--8-10-10-10-10-|-12-12-12-12--8--8--8--8-|
 |------------------------|-------------------------|

PM| PM| PM--| PM|
E E E E E E E E E E E E E E E E +E E E E Q E E E E Q E E E E
 
 ||------------------|-----------------|------------------|-----------------|
 ||o-----------------|-----------------|------------------|-----------------|
 ||------------------|-----------------|------------------|-----------------|
 ||------------------|-----------------|-------6S7-7------|-----------------|
 ||o-6-----4-----5---|---3-----4-3-1-0-|-(0)-0-4S5-5--0-0-|-0-0-0--0-0-0-0--|
 ||--6-0-0-4-0-0-5-0-|-0-3-0-0-4-3-1-0-|-(0)-0--------0-0-|-0-0-0--0-0-0-0--|

1.
PM PM PM PM
[E] [E] [E] [E] [E] [E] [E] [E] [E] [E] [E] [E] [E] [E] [E] [E] [E] [E] [E] [E] [E] [E] [E] [E] [E] [E] [E] [E] [E] [E] [E] [E]  
 
 |-----------------|-----------------|-----------------|------------------||
 |-----------------|-----------------|-----------------|-----------------o||
 |-----------------|-----------------|-----------------|------------------||
 |-----------------|-----------------|-----------------|------------------||
 |-8-8-8-8-8-8-8-8-|-5-5-5-5-5-5-6-5-|-6\--------------|-----------------o||
 |-8-8-8-8-8-8-8-8-|-5-5-5-5-5-5-6-5-|-6S0-0-0-0-0-0-0-|-0-0-0-0-0-0-0-0--||

2.
PM PM PM PM PM PM PM
E E E E E E E E E E E E E E E E Q E E E E E E E E E E E E E E
 
 |------------------|-----------------||------------------|------------------||
 |------------------|-----------------||o-----------------|-----------------o||
 |------------------|-----------------||------------------|------------------||
 |------------------|-----------------||------------------|------------------||
 |-6\---------------|-----------5-6-5-||o-6\--------------|-----------5-6-5-o||
 |-6\-0-0-0-0-0-0-0-|-0-0-0-0-0-5-6-5-||--6\--0-0-0-0-0-0-|-0-0-0-0-0-5-6-5--||

PM PM PM PM| PM| PM--| PM|
Q E E E E E E E E E E E E +Q E E E E E E E E E E E E E E E E
 
 |-----------------|--------------------|-----------------|-----------------|
 |-----------------|--------------------|-----------------|-----------------|
 |-----------------|--------------------|-----------------|-----------------|
 |-----------------|--------------------|-----------------|-----------------|
 |-6\--------------|-----------10-(10)S=|=6-----4-----5---|---3-----4-3-1-0-|
 |-6\--0-0-0-0-0-0-|-0-0-0-0-0-10-(10)S=|=6-0-0-4-0-0-5-0-|-0-3-0-0-4-3-1-0-|

+E E E E Q E E E E Q E E E E E E E E E E E E E E E E E E E E
 
 |------------------|----------------|-----------------|-----------------|
 |------------------|----------------|-----------------|-----------------|
 |------------------|----------------|-----------------|-----------------|
 |-------6S7-7------|----------------|-----------------|-----------------|
 |-(0)-0-4S5-5--0-0-|-0-0-0--0-0-0-0-|-8-8-8-8-8-8-8-8-|-5-5-5-5-5-5-5-5-|
 |-(0)-0--------0-0-|-0-0-0--0-0-0-0-|-8-8-8-8-8-8-8-8-|-5-5-5-5-5-5-5-5-|

[E] [E] [E] [E] [E] [E] [E] [E] [E] [E] [E] [E] [E] [E] [E] [E]  
 
 |------------------------|-------------------------|
 |------------------------|-------------------------|
 |------------------------|-------------------------|
 |-8S10-10-10-12-12-12-12-|-14-14-14-14-10-10-10-10-|
 |-6S=8--8--8-10-10-10-10-|-12-12-12-12--8--8--8--8-|
 |------------------------|-------------------------|

PM| PM| PM--| PM|
[E] [E] [E] [E] [E] [E] [E] [E] [E] [E] [E] [E] [E] [E] [E] [E]  
 
 |-----------------|-----------------|
 |-----------------|-----------------|
 |-----------------|-----------------|
 |-----------------|-----------------|
 |-6-----4-----5---|---3-----4-3-1-0-|
 |-6-0-0-4-0-0-5-0-|-0-3-0-0-4-3-1-0-|

+E E E E Q E E E E Q E E E E E E E E E E E E E E E E E E E E
 
 |------------------|----------------|-----------------|-----------------|
 |------------------|----------------|-----------------|-----------------|
 |------------------|----------------|-----------------|-----------------|
 |-------6S7-7------|----------------|-----------------|-----------------|
 |-(0)-0-4S5-5--0-0-|-0-0-0--0-0-0-0-|-8-8-8-8-8-8-8-8-|-5-5-5-5-5-5-6-5-|
 |-(0)-0--------0-0-|-0-0-0--0-0-0-0-|-8-8-8-8-8-8-8-8-|-5-5-5-5-5-5-6-5-|

PM PM PM
Q E E E E E E E E E E E E E E 3x E E E E E E E E E q E H
 
 ||-----------------|------------------||------------------|-------------|
 ||o----------------|-----------------o||------------------|-------------|
 ||-----------------|------------------||------------------|-------------|
 ||-----------------|------------------||------0---1-------|-0-1--0------|
 ||o-6\-------------|-----------5-6-5-o||-6\-0---0---0-3-0-|-------------|
 ||--6S=0-0-0-0-0-0-|-0-0-0-0-0-5-6-5--||-6\---------------|-------------|

Bridge
Q=96
Gtr II
 
 PM----------------|

E S S S S S S S S S S S S S S 4x H Q S S S S
 
 ||---------------------------------||-||----------------------------------||
 ||o-------------------------------o||-||o--------------------------------o||
 ||---------------------------------||-||----------------------------------||
 ||---------------------------------||-||----------------------------------||
 ||o-6-0---0---0---0-0---0---5-6-5-o||-||o-6\-----------------------5-6-5-o||
 ||--6-0---0---0---0-0---0---5-6-5--||-||--6\-----------------------5-6-5--||

|
| Gtr III
 
 | PM----------------|

| E S S S S S S S S S S S S S S 4x S S S S S S S S S e S S S S S
 
 ||---------------------------------||-||----------------------------------||
 ||o-------------------------------o||-||o--------------------------------o||
 ||---------------------------------||-||----------------------------------||
 ||---------------------------------||-||-------0---1-------0-1-0----------||
 ||o-6-0---0---0---0-0---0---5-6-5-o||-||o-6\-0---0---0-3-0---------5-6-5-o||
 ||--6-0---0---0---0-0---0---5-6-5--||-||--6\-----------------------5-6-5--||

Gtr II
 
 PM--| PM--| PM--| PM

H Q S S S S S S S S S S S S S S S S S S S S
 
 |--------------------------------|---------------------------------||
 |--------------------------------|---------------------------------||
 |--------------------------------|---------------------------------||
 |--------------------------------|---------------------------------||
 |-6\-----------------------0-0-1-|-0-0-0-3-0-0-0-4-0-0-0-1-0-5-6-5-||
 |-6\-----------------------0-0-1-|-0-0-0-3-0-0-0-4-0-0-0-1-0-5-6-5-||

|
| Gtr III
 
 | PM| PM--| PM--| PM--| PM

| S S S S S S S S S e S S S S S S S S S S S S S S S S S S S S S
 
 |--------------------------------|---------------------------------||
 |--------------------------------|---------------------------------||
 |--------------------------------|---------------------------------||
 |------0---1-------0-1-0---------|---------------------------------||
 |-6\-0---0---0-3-0---------0-0-1-|-0-0-0-3-0-0-0-4-0-0-0-1-0-5-6-5-||
 |-6\-----------------------0-0-1-|-0-0-0-3-0-0-0-4-0-0-0-1-0-5-6-5-||

Gtrs II, III
PM PM PM PM PM PM PM PM PM|
S S S S S S S S S e S S S S S S S S S S S S S S e S S S S S
 
 ||---------------------------------||-------------------------------|
 ||o-------------------------------o||-------------------------------|
 ||---------------------------------||-------------------------------|
 ||------0---1-------0-1-0----------||-----0---1-------0-1-0---------|
 ||o-6-----------3-----------5-6-5-o||-6-----------3-----------0-0-1-|
 ||--6-0---0---0---0---------5-6-5--||-6-0---0---0---0---------0-0-1-|
 PM--| PM--| PM--| PM PM PM PM PM

S S S S S S S S S S S S S S S S S S S S S S S S S e S S S S S
 
 |---------------------------------||----------------------------------||
 |---------------------------------||o--------------------------------o||
 |---------------------------------||----------------------------------||
 |---------------------------------||------0---1-------0-1-0-----------||
 |-0-0-0-3-0-0-0-4-0-0-0-1-0-5-6-5-||o-6-----------3-----------5-6-5--o||
 |-0-0-0-3-0-0-0-4-0-0-0-1-0-5-6-5-||--6-0---0---0---0---------5-6-5---||
 PM PM PM PM PM| PM--| PM--| PM--| PM

S S S S S S S S S e S S S S S S S S S S S S S S S S S S S +E
 
 |-------------------------------|-------------------------------------|
 |-------------------------------|-------------------------------------|
 |-------------------------------|-------------------------------------|
 |-----0---1-------0-1-0---------|-------------------------------------|
 |-6-----------3-----------0-0-1-|-0-0-0-3-0-0-0-4-0-0-0-1-0-10-(10)\--|
 |-6-0---0---0---0---------0-0-1-|-0-0-0-3-0-0-0-4-0-0-0-1-0-10-(10)\--|

Verse
Q=192
S S S S E E E E E E E E E E E E E +E
 
 ||----------------------|-------------------|
 ||o---------------------|-------------------|
 ||----------------------|-------------------|
 ||----------------------|-------7-7-7-7-(7)-|
 ||o---------------------|-------5-5-5-5-(5)-|
 ||--0-0-0-0-3-0-4-0-3-0-|-0-0-0-------------|

S S S S E E E E E E E E E E E E E +E
 
 |---------------------|--------------------|
 |---------------------|--------------------|
 |---------------------|--------------------|
 |---------------------|-------8-8-8-8-(8)--|
 |---------------------|-------6-6-6-6-(6)--|
 |-0-0-0-0-3-0-4-0-3-0-|-0-0-0--------------|

S S S S E E E E E E E E E E E E E +E
 
 |---------------------|------------------------|
 |---------------------|------------------------|
 |---------------------|------------------------|
 |---------------------|-------10-10-10-10-(10)-|
 |---------------------|--------8--8--8--8--(8)-|
 |-0-0-0-0-3-0-4-0-3-0-|-0-0-0------------------|

PM| PM| PM| PM--|
E E E q E E e +e E E q E E E
 
 |----------------|-------------------||
 |----------------|------------------o||
 |----------------|-------------------||
 |----------------|-------------------||
 |-6-----4------5-|-(5)-----3--------o||
 |-6-0-0-4--0-0-5-|-(5)-0-0-3--0-0-0--||

F***
Gtr II
W H E E E E
 
 |-----------------|-----------------|
 |-----------------|-----------------|
 |-----------------|-----------------|
 |-----------------|-----------------|
 |-----------------|---------4-3-1-0-|
 |-----------------|---------4-3-1-0-|

|
| Gtr III
| PM PM PM PM
| E E E E E E E E E E E E E E E E
 
 |-----------------|-----------------|
 |-----------------|-----------------|
 |-----------------|-----------------|
 |-----------------|-----------------|
 |-----------------|---------4-3-1-0-|
 |-4-3-0-4-3-0-4-3-|-0-4-3-0-4-3-1-0-|

Chorus
Gtrs II, III
+E E E E Q E E E E Q E E E E E E E E E E E E E E E E E E E E
 
 |------------------|----------------|-----------------|-----------------|
 |------------------|----------------|-----------------|-----------------|
 |------------------|----------------|-----------------|-----------------|
 |-------6S7-7------|----------------|-----------------|-----------------|
 |-(0)-0-4S5-5--0-0-|-0-0-0--0-0-0-0-|-8-8-8-8-8-8-8-8-|-5-5-5-5-5-5-5-5-|
 |-(0)-0--------0-0-|-0-0-0--0-0-0-0-|-8-8-8-8-8-8-8-8-|-5-5-5-5-5-5-5-5-|

[E] [E] [E] [E] [E] [E] [E] [E] [E] [E] [E] [E] [E] [E] [E] [E]  
 
 |------------------------|-------------------------|
 |------------------------|-------------------------|
 |------------------------|-------------------------|
 |-8S10-10-10-12-12-12-12-|-14-14-14-14-10-10-10-10-|
 |-6S=8--8--8-10-10-10-10-|-12-12-12-12--8--8--8--8-|
 |------------------------|-------------------------|

PM| PM| PM--| PM|
[E] [E] [E] [E] [E] [E] [E] [E] [E] [E] [E] [E] [E] [E] [E] [E]  
 
 |-----------------|-----------------|
 |-----------------|-----------------|
 |-----------------|-----------------|
 |-----------------|-----------------|
 |-6-----4-----5---|---3-----4-3-1-0-|
 |-6-0-0-4-0-0-5-0-|-0-3-0-0-4-3-1-0-|

E E E E Q E E E E Q E E E E E E E E E E E E E E E E E E E E
 
 |----------------|----------------|-----------------|-----------------|
 |----------------|----------------|-----------------|-----------------|
 |----------------|----------------|-----------------|-----------------|
 |-----6S7-7------|----------------|-----------------|-----------------|
 |-0-0-4S5-5--0-0-|-0-0-0--0-0-0-0-|-8-8-8-8-8-8-8-8-|-5-5-5-5-5-5-6-5-|
 |-0-0--------0-0-|-0-0-0--0-0-0-0-|-8-8-8-8-8-8-8-8-|-5-5-5-5-5-5-6-5-|

Outro
Q=134
PM PM PM
Q E E E E E E E E E E E E E E 3x W H H
 
 ||-----------------|------------------||----------|-----------|
 ||o----------------|-----------------o||----------|-----------|
 ||-----------------|------------------||----------|-----------|
 ||-----------------|------------------||----------|-----------|
 ||o-6\-------------|-----------5-6-5-o||-6--------|-3----4----|
 ||--6S=0-0-0-0-0-0-|-0-0-0-0-0-5-6-5--||-6--------|-3----4----|
 PM----------------------|

E E E E E E E E E E E E E E E E 3x
 
 ||------------------|------------------||
 ||o-----------------|-----------------o||
 ||------------------|------------------||
 ||------------------|------------------||
 ||o-6\--------------|-----------5-6-5-o||
 ||--6S0-0-0-0---0---|-0-0---0-0-5-6-5--||
 PM--| PM--| PM--|

[E] [E] [E] [E] [E] [E] [E] [E] [E] [E] [E] [E] [E] [E] [E] [E]  
 
 |-------------------|-------------------|
 |-------------------|-------------------|
 |-------------------|-------------------|
 |-------------------|-------------------|
 |-6-----3/-------4/-|-------1/---5-6-5--|
 |-6-0-0-3/-0-0-0-4/-|-0-0-0-1/---5-6-5--|

Q=133
 
 PM------------------|

Q E E E E E E E E E E E E E E 3x
 
 ||-----------------|------------------||
 ||o----------------|-----------------o||
 ||-----------------|------------------||
 ||-----------------|------------------||
 ||o-6\-------------|-----------5-6-5-o||
 ||--6S=0-0-0-0-0---|-0-0---0---5-6-5--||
 PM--| PM--| PM--| ~~~~~~~~

E E E E E E E E E E E E E E E E Q +Q E E Q
 
 |-------------------|------------------|-------------------*|
 |-------------------|------------------|-------------------*|
 |-------------------|------------------|-------------------*|
 |-------------------|------------------|-------------------*|
 |-6-----3/-------4/-|-------1/---0-8-6-|-6---(6)--0--------*|
 |-6-0-0-3/-0-0-0-4/-|-0-0-0-1/---0-----|----------0--------*|

Duration Legend
 
 ---------------
 W - whole; H - half; Q - quarter; E - 8th; S - 16th; T - 32nd; X - 64th; a - acciaccatura

+ - note tied to previous; . - note dotted; .. - note double dotted
Uncapitalized letters represent notes that are staccato (1/2 duration)
Irregular groupings are notated above the duration line
Duration letters will always appear directly above the note/fret number it represents the
duration for. Duration letters with no fret number below them represent rests. Multi-
bar rests are notated in the form Wxn, where n is the number of bars to rest for. Low
melody durations appear below the staff
Tablature Legend
 
 ----------------

h - hammer-on
p - pull-off
b - bend
pb - pre-bend
r - bend release (if no number after the r, then release immediately)
/\ - slide into or out of (from/to "nowhere")
s - legato slide
S - shift slide
<n> - natural harmonic
(n) - artificial harmonic
n(n) - tapped harmonic
~ - vibrato
tr - trill
T - tap
TP - trem. picking
PM - palm muting
\n/ - tremolo bar dip; n = amount to dip
\n - tremolo bar down
n/ - tremolo bar up
/n\ - tremolo bar inverted dip
= - hold bend; also acts as connecting device for hammers/pulls
<> - volume swell (louder/softer)
x - on rhythm slash represents muted slash
o - on rhythm slash represents single note slash
Misc Legend
 
 -----------

| - bar
|| - double bar
||o - repeat start
o|| - repeat end
*| - double bar (ending)
: - bar (freetime)
$ - Segno
& - Coda
Tempo markers - <E/E./Q/Q./H/H.> = BPM(8/16=s8/s16), where s8 = swing 8ths, s16 = swing 16ths

Important: The song above is NOT stored on the Chordie server. The original song is hosted at www.azchords.com. Chordie works as a search engine and provides on-the-fly formatting. Chordie does not index songs against artists'/composers' will. To remove this song please click here.

Text color:
Chord color:
Chord grids: 
Font size:    
Page size: 

E
Rate #2 of 3 versions

Login - add to songbook

SHARE PAGE  



You need to log in to post comments