Guitar Tabs, Chords and Lyrics
Server problems seems to be fixed. Chordie has been experiencing problems with songs disappearing. These issues now seems to be fixed, but still verifying the fix. If you find anything strange, please email admin@chordie.com.


Inflatable  Bush

Bush - inflatable
Hi, these are my first experiences in writing tabs, so I hope you´ll understand it.
This music can be played in two ways:
1st - if you want to sing while playing, it will sound better by playing the
chords I´ll be writing. That means, not playing "exactly" as Gavin, as he doesn't play
chords but mostly notes, as you might have already noticed.
2nd - if you want to play as he actually does.
So, here it goes (if you have any doubts, or for some reason don't agree,
I hope I'm not mistaken about the name of the chords (until very recently,
I never had guitar lessons, I have learned by myself for some years.
HAVE FUN!!!
1st way:
D Bm/F#m (I'm not sure which sounds better, perhaps F#m)
Let it fly.....
[A] [G]  
Repeat it more 2 times
Chorus:
[Em]So pretty in whi[C]te
pretty when you're f[Em]aithful
so pretty in wh[C]ite
pretty when you're f[Am]aithful
when you're fa[F]ithfull
Verse again 2x
[D] [Bm/F#m]  
[A] [G]  
Chorus
[Em]So pretty in wh[C]ite
pretty when you're fa[Em]ithful
so pretty in w[C]hite
pretty when you're f[Em]aithful
so pretty in w[C]hite
pretty when you're f[Am]aithful
when you're f[F]aithful[Em]
now comes the solo:
 
 E--------------------------------------------------------------------
 B----------------------------------------------------------------------
 G---------------------------------------------------------------------
 D---7-7-7-7-5-4-5-4-4-4-5-7-12-12-12-11-11-12-----------------------
 A---------------------------------------------7-5-9-10--------------
 E-------------------------------------------------------------------

I don't m[D]ind most of the t[F#m]ime
........A.................G
Chorus again (I think you'll already haveit memorised by now :) )
2nd Way:
just like the first, but when this part (after one time D;F#m;A;G) comes play:
 
 E--5--5--5---5--5--5---5-5-5---3-3---------------------------------------------
 B---7--7------7--7------5-5-----3-3-----------------------------------------
 G-------------------------------------------------------------------
 D-------------------------------------------------------------------
 A-------------------------------------------------------------------
 E-------------------------------------------------------------------


Important: The song above is NOT stored on the Chordie server. The original song is hosted at www.azchords.com. Chordie works as a search engine and provides on-the-fly formatting. Chordie does not index songs against artists'/composers' will. To remove this song please click here.

Text color:
Chord color:
Chord grids: 
Font size:    
Page size: 

A Am Bm/F#m C D Em F F#m G
Rate #6 of 7 versions

Jango Player

Login - add to songbook

SHARE PAGE  




You need to log in to post comments