Guitar Tabs, Chords and Lyrics
Server problems seems to be fixed. Chordie has been experiencing problems with songs disappearing. These issues now seems to be fixed, but still verifying the fix. If you find anything strange, please email admin@chordie.com.


Inflatable  Bush

Bush ?? Inflatable
Standard Tuning (EADGBe)
Let it sl[D5]ide ov[F#5]erhead
When I believe in y[A5]ou my soul can r[G5]est
But our lo[D5]ve It's really lo[F#5]ve
It can never fa[A5]il but fail it d[G5]oes
When we sh[D5]ine like the [F#5]sun
You seem the only o[A5]ne my only fr[G5]iend
(chorus)
[Em]so pretty in whi[C]te
pretty when you're faithf[Em]ul
so pretty in whi[C]te
pretty when you're faith[C5]ful
when you're fai[F5]thful
i resigned
took a break
was someone else
it's like i've come undone
and i've only just become
inflatable for you
(chorus)
i don't mind
most of the time
but you push me so
far inside
(chorus)
Background Guitar
 
 e|---------------------------------|
 B|---10--------10---------10-------|
 G|--------11---------11---------11-|
 D|-0---------0----------0----------|
 A|---------------------------------|
 E|---------------------------------|
 e|----------------------------------|
 B|---10---------10---------10-------|
 G|---------11---------11---------11-|
 D|----------------------------------|
 A|-9----------9----------9----------|
 E|----------------------------------|
 e|--------------------------------|
 B|---10--------10--------10-------|
 G|---------9---------9---------9--|
 D|--------------------------------|
 A|-0---------0---------0----------|
 E|--------------------------------|
 e|----------------------------------|
 B|----------------------------------|
 G|----9----------9----------9-------|
 D|---------12---------12---------12-|
 A|-10---------10---------10---------|
 E|----------------------------------| 

solo
 
 e|----------------------------------------------------------|
 B|----------------------------------------------------------|
 G|--/7--777--7-5-4-5-4--------------------------------------|
 D|---------------------4--4-5-7--7\12-12--12-11-9--9\11--4^-|
 A|-----------------------------------------------------7----|
 E|----------------------------------------------------------|


Important: The song above is NOT stored on the Chordie server. The original song is hosted at www.azchords.com. Chordie works as a search engine and provides on-the-fly formatting. Chordie does not index songs against artists'/composers' will. To remove this song please click here.

Text color:
Chord color:
Chord grids: 
Font size:    
Page size: 

A5 C C5 D5 Em F#5 F5 G5
Rate #4 of 7 versions

Jango Player

Login - add to songbook

SHARE PAGE  




You need to log in to post comments