Guitar Tabs, Chords and Lyrics
Server problems seems to be fixed. Chordie has been experiencing problems with songs disappearing. These issues now seems to be fixed, but still verifying the fix. If you find anything strange, please email admin@chordie.com.


Japanese Freight Train  Bush

This song was only released on certain copies of GoldenState and maybe a couple imported singles.
INTRO
[F#] [F#] [F#] [F#]  
MAIN
 
 d--------------------------------------------------------|
 a--------------------------------------------------------|
 e--0--2-2--0--2--0--5--0--5--0--2-2--0--2--0--5--0--6^---|

sometimes its w/ full chords like this:
 
 d--------------------------------------------------------|
 a--4--4-4--4--4-----7--7--7--4--4-4--4--4-----7-----8----|
 e--0--2-2--0--2--0--5--0--5--0--2-2--0--2--0--5--0--6^---|

CHORUS
[B]"m[F#]edicine [A] [G] [A] [G]
[B]safety [F#]in your comfort z[A]one[G]
[B]safety [F#]in"[A] [A]
chorus lead:
 
 b-||--------------0/9/12p0-0-0---------------0/9/12p0-0-0-----------------||
 g-||-0/9/11p0-0-0---------------0/9/11p0-0-0--------------0/9/11p0-9/11p0-||
 d-||----------------------------------------------------------------------||
 b------------0/12--|
 g--12-11\10--------|
 d------------------|

"comfort zone"
BRIDGE
gtr1
 
 g--7/9-----7/9----7/9-----12\11--|
 d-------------------------12\11--|
 a--5/7-----5/7----5/7-----10\9---|

gtr2
 
 d--------------------------------------------------------------------------|
 a--12/14-14-14-14-14-12h14-14-14-14-14-12/14-14-14-12-14-17-17-16-----16---|
 e--10/12-12-12-12-12-12----12-12-12-12-10/12-12-12-12-12-15-15-15-\14-12---|

play that a couple times then only play the last two chords of that riff a couple times (the G and F#).
then repeat the chorus lead.
repeat the chorus
then there is little rhythm turn around:
 
 d--9----4----4--4--|
 a--9----4----3--3--|
 e--7----2----2--2--|

end with the playing the main riff again. last chord you hear is a Bb.
key:
h - hammer on
p - pull off
~ - let sustain through
/ \ - slide up or down accordingly
^ - bend
here are the lyrics:
"memories of you around my head like a japanese freight train
visions of you around my bed like a flower of napalm
she had my head full of lovers
i could never get enough of you
i take my medicine we all need somewhere to go
medicine safety in your comfort zone
safety in
i do you no wrong when you burn you're a dynamite lover
you're turning me on when you think like you do as livitine
we are all that matters
now i could never get enough of you
i take my medicine we all need somewhere to go
medicine safety in your comfort zone
safety in your comfort zone
medicine we all need somewhere to go
medicine safety in your comfort zone
safety in your comfort zone"
arial.10pnt.western
Well my dearest consorts, i fear i must be parting with you now.
ta-ta!
jimi-james brewer

Important: The song above is NOT stored on the Chordie server. The original song is hosted at www.azchords.com. Chordie works as a search engine and provides on-the-fly formatting. Chordie does not index songs against artists'/composers' will. To remove this song please click here.

Text color:
Chord color:
Chord grids: 
Font size:    
Page size: 

A B F# G
Rate #1 of 1 versions

Login - add to songbook

SHARE PAGE  



You need to log in to post comments