Guitar Tabs, Chords and Lyrics
Major upgrade!! After one year development the new version of Chordie is now online! Please give feedback.


Little Things   Bush

 
 --------1--1--1--3--3--3--5--5--5--5--5--
 --------1--1--1--3--3--3--5--5--5--5--5--
 --------1--1--1--5--5--5--7--7--7--7--7--
 --7--7--3--3--3--5--5--5--7--7--7--7--7--
 --7--7--3--3--3--3--3--3--5--5--5--5--5--
 --5--5--1--1--1--3--3--3--5--5--5--5--5--

 


 


 Verse 1:


 


 I bleach the sky / Every night


 Loaded on wrong / And further from right


 Spinning around / Two howling moons


 'Cause they're always there / Whatever I do


 


 Riff 1:


 


 

 
 ----------------------------------------------------------3-------------

 


 [-]  


 

 
 -----1-------1-----1--------3-------1-------1-----1---------------------

 


 [-]  

 
 ---0-------0-----0--------0-------0-------0-----0-------0---------------

 


 [-]  

 
 -2-----2-3--------------------4\2-----2-3-------------------------------

 


 [-]  


 

 
 ---------------3------3/5---------------------3-----3/5-----------------

 


 [-]  


 [-]Verse 2:


 


 The river is loaded / I've been there today


 Took it some questions / She does me again


 I'd die in your arms / If you were dead too


 Here comes a lie / We will always be true


 


 RIFF 1


 


 Bridge (in the middle of Riff 1) :


 


 Going up when coming down


 Scratch away, way, way


 


 Chorus:


 


 It's the little / things that kill


 Tearin' at my brains again


 Oh, the little things that kill


 The little things that kill


 


 RIFF 1


 


 Bigger you give / Bigger you get


 We're boss at denial / But best at forget


 Cupboard is empty / We really need food


 Summer is winter, and you always knew


 


 RIFF 1 & BRIDGE


 


 CHORUS


 


 Solo (someone PLEASE send this to me!)


 


 Outro (same chords as chorus) :


 


 I touch your mouth / My willy is food


 Addicted to a-love / Addicted to fools (***)


 I kill you once / I kill you again


 We're starving and crude / Welcome my friends to the


 


 CHORUS


 


 Questions, comments, anything? Send me mail. PLEASE! No one


 writes me!


 Just to say hi?


 


 Jeff Hayes


 


 this is bush's "Little things" off of Sixteen Stone


 


 chorus(intro)


 

 
 -------10---------7-------------------------------------------------------
 ---7--10---10----7------------------------------------------------------
 ---7---8---10----5-------------------------------------------------------
 ---5---------8------------------------------------------------------------

 


 


 riff before chorus and other spots


 


 

 
 ----------1----------1---------1-------------3------------------------
 -------0----------0--------0----------------(0)-----------------------
 ----2--------2-3------------------------4--------4\2-----------------
 ------------------------3---------3/5---------------------------------


Important: The song above is NOT stored on the Chordie server. The original song is hosted at www.azchords.com. Chordie works as a search engine and provides on-the-fly formatting. Chordie does not index songs against artists'/composers' will. To remove this song please click here.

This song is displayed as text-only. Transposing and tuning is only available for chordpro-songs.
Rate #1 of 8 versions

Jango Player

Login - add to songbook

SHARE PAGE  




You need to log in to post comments