Guitar Tabs, Chords and Lyrics
Server problems seems to be fixed. Chordie has been experiencing problems with songs disappearing. These issues now seems to be fixed, but still verifying the fix. If you find anything strange, please email admin@chordie.com.


Straight No Chaser  Bush

tunning: normal
guitar tab
 
 ----------

Fig1 :
[F] [D5]  
 
 e |------------------------------------------------
 B |------------------------------------------------
 G |---------------2--------7-----7-----------------
 D |-------3-----3-3---/7-7-7-7-7-7-7-X-------------
 A |-3---3-3---3-3-----/5-5---5-5---5-X-------------
 E |-1---1-----1------------------------------------

Always be there
Fig2 :
[Bb5]  
 
 e |------------------------------------------------
 B |------------------------------------------------
 G |------------------------------------------------
 D |-8--8--8--8--8--8--8--8--8--8--8--8--8--8--8--X-
 A |-8--8--8--8--8--8--8--8--8--8--8--8--8--8--8--X-
 E |-6--6--6--6--6--6--6--6--6--6--6--6--6--6--6--X-

^ ^ ^ ^ ^ ^
Fig3 :
[C5] [D#5]  
 
 e |------------------------------------------------
 B |------------------------------------------------
 G |-------------------------8--8--8--8--8--8--8--X-
 D |-10-10-10-10-10-10-10-X--8--8--8--8--8--8--8--X-
 A |-10-10-10-10-10-10-10-X--6--6--6--6--6--6--6--X-
 E |-8--8--8--8--8--8--8--X-------------------------

^ ^ ^ ^ ^ ^
verse : ("always be there")Fig1 x4
chorus: Fig2,Fig3 x3 ("war on all sides") Fig2 x2
_______ _______ ___ ___ _______ _______
Y _ Y _ \ Y Y _ Y _ Y
l___| | l / l l l___l___| |
/ ___/ _ \\_ _/l____ \/ ___/
| l Y l \| | Y l | l Y
l_______|________/l___| \_______l_______|

Important: The song above is NOT stored on the Chordie server. The original song is hosted at www.azchords.com. Chordie works as a search engine and provides on-the-fly formatting. Chordie does not index songs against artists'/composers' will. To remove this song please click here.

Text color:
Chord color:
Chord grids: 
Font size:    
Page size: 

Bb5 C5 D#5 D5 F
Rate #1 of 5 versions

Login - add to songbook

SHARE PAGE  



You need to log in to post comments