Guitar Tabs, Chords and Lyrics
Server problems seems to be fixed. Chordie has been experiencing problems with songs disappearing. These issues now seems to be fixed, but still verifying the fix. If you find anything strange, please email admin@chordie.com.


I'll Feel a Whole Lot Better  The Byrds

Intro
Q=134
[A] [Asus4] [Asus2] [A] [AsusA] [AsAs2] [Asus4] [A] [Asus2] [A] [AsAs4] 
[4/4] Gtr I (El. 12-string Gtr.) Gtrs I, II (El. Gtr.)
Q Q E E E E +E Q E +E E E E Q Q E E E E +E Q E +E E E E
 
 |----0--0-0---0-|-(0)-0--0-(0)-0-0-0-|-0--0--0-0---0-|-(0)-0--0-(0)-0-0-0-||
 |----2--2-2---3-|-(3)-2--0-(0)-2-2-0-|-2--2--0-2---3-|-(3)-2--0-(0)-2-3-2-||
 |----2--2-2-2-2-|-(2)-2--2-(2)-2-2-2-|-2--2--2-2-2-2-|-(2)-2--2-(2)-2-2-2-||
 |----2--2-2-2-2-|-(2)-2--2-(2)-2-2-2-|-2--2--2-2-2-2-|-(2)-2--2-(2)-2-2-2-||
 |----0--0-0-0-0-|-(0)------------0---|-0--0--0---0-0-|-(0)------------0---||
 |---------------|--------------------|---------------|--------------------||

1st - 3rd Verses
$
[A]Q Q [AsAs2]E E E [Asus4]E +E [A]Q [Asus2]E +E [A]E [AsAs4]E E Q Q [AsAs2]E E E [Asus4]E +E [A]Q [Asus2]E +E [A]Q [E]E
 
 ||-----0--0-0---0-|-(0)-0--0-(0)-0-0-0-|----0--0-0---0-|-(0)-0--0-(0)-0--0-|
 ||o----2--0-2---3-|-(3)-2--0-(0)-2-3-2-|----2--0-2---3-|-(3)-2--0-(0)-2--0-|
 ||--2--2--2-2-2-2-|-(2)-2--2-(2)-2-2-2-|-2--2--2-2-2-2-|-(2)-2--2-(2)-2--1-|
 ||--2--2--2-2-2-2-|-(2)-2--2-(2)-2-2-2-|-2--2--2-2-2-2-|-(2)-2--2-(2)-2--2-|
 ||o-0--0--0---0-0-|-(0)------------0---|-0--0--0---0-0-|-(0)---------------|
 ||----------------|--------------------|---------------|-------------------|

[Esus4]Q E E [E]E Q [Esus4]E +E Q [E]E +E Q E [F#m]E E E E +E E E E [B]E E E E E E E E
 
 |----0-0---0--0-|-(0)-0--0-(0)-0--0-|-2-2---2-(2)-2---2-|-7-7---7-7-7---0--|
 |----0-0---0--0-|-(0)-0--0-(0)-0--0-|-2-2---2-(2)-2-2-2-|-7-7---7-7-7---0--|
 |----2-2-1-1--2-|-(2)-2--1-(1)-1--1-|-2-2-2-2-(2)-2-2-2-|-8-8-8-8-8-8---0--|
 |-2--2-2-2-2--2-|-(2)-2--2-(2)-2--2-|-4-4-4-4-(4)-4-4-4-|-9-9-9-9-9-9-9----|
 |-2------2------|-------------------|-4---4---------4---|-9---9---9---9----|
 |-0------0------|-------------------|-2---2-------------|-7---7-------7----|

[A]E E [AsAsAsAs2Asus4]E E E Q E +E [A]Q [Asus2]E +E [A]Q [D]E E E E E +E E E E [Bm]E E E E +E E E E
 
 |---0-0-0-0-0--0-|-(0)-0--0-(0)-0--2-|-2-2-2-2-(2)-2-2-2-|-2-2---2-(2)-2-2-2--|
 |---2-0-2-0-2--3-|-(3)-2--0-(0)-2--3-|-3-3-3-3-(3)-3-3-3-|-3-3-3-3-(3)-3-3-3--|
 |-2-2-2-2-2-2--2-|-(2)-2--2-(2)-2--2-|-2-2-2-2-(2)-2-2-2-|-4-4-4-4-(4)-4-4-4--|
 |-2-2-2-2-2-2--2-|-(2)-2--2-(2)-2--0-|-0-0-0-0-(0)-0-0-0-|-4-4-4-4-(4)-4-4-4--|
 |-0---0---0----0-|-(0)---------------|-------------------|-2---2--------------|
 |----------------|-------------------|-------------------|--------------------|

1.
[A]E E E E +E Q E [E]E E E E +E E E E [D]E E E E +E E E [Dsus4]E
 
 |-0-0---0-(0)-0--0-|-0-0---0-(0)-0---0-|-2-2-2-2-(2)-2-2-3-|
 |-2-2-2-2-(2)-2--0-|-0-0---0-(0)-0-0-0-|-3-3-3-3-(3)-3-3-3-|
 |-2-2-2-2-(2)-2----|-1-1-1-1-(1)-1-1-1-|-2-2-2-2-(2)-2-2-2-|
 |-2-2-2------------|-2-2-2-2-(2)-2-2-2-|-0---0---------0---|
 |-0---0------------|-2---2---------2---|-------------------|
 |------------------|-0---0---------0---|-------------------|

[E]E E E E +E E E E [A]Q Q [AsAs2]E E E [Asus2]E +E [A]Q [Asus2]E +E [A]E [AsAs4]E E
 
 |-0-0---0-(0)-0---0-|-0--0--0-0---0-|-(0)-0--0-(0)-0-0-0--||
 |-0-0---0-(0)-0-0-0-|-2--2--0-2---0-|-(0)-2--0-(0)-2-3-2-o||
 |-1-1-1-1-(1)-1-1-1-|-2--2--2-2-2-2-|-(2)-2--2-(2)-2-2-2--||
 |-2-2-2-2-(2)-2-2-2-|-2--2--2-2-2-2-|-(2)-2--2-(2)-2-2-2--||
 |-2---2---------2---|-0--0--0---0---|-----0----------0---o||
 |-0---0---------0---|---------------|---------------------||

2.,D.S.
To Coda
[D]Gtr I[G] [D] [G]
[E] [E] [E] [E] [+E] [E] [E] [E] [+E] [E] [E] [E] [E] [E] [E] [E]  
 
 |-2-2-2-2-(2)-2-2-3-|-(3)-3-3-2-3-3-3-3--|
 |-3-3-3-3-(3)-3-3-0-|-(0)-0-0-3-0-0-0-0--|
 |-2-2-2-2-(2)-2-2-0-|-(0)-0-0-2-0-0-0-0--|
 |-0-0-0-0-(0)-0-0-0-|-(0)-0-0-0-0-0-0-0--|
 |-------------------|-------2---2---2----|
 |-------------------|-------3---3---3----|

|
| Gtr II
| E E E E +E E E E +E E E E E E E E
 
 |-2-2-2-2-(2)-2-2-3-|-(3)-3-3-2-3-3-3-3--|
 |-3-3-3-3-(3)-3-3-0-|-(0)-0-0-3-0-0-0-0--|
 |-2-2-2-2-(2)-2-2-0-|-(0)-0-0-2-0-0-0-0--|
 |-0-0-0-0-(0)-0-0-0-|-(0)-0-0-0-0-0-0-0--|
 |-------------------|-------2---2---2----|
 |-------------------|-------3---3---3----|

[A]Q E E E [AsuAsus4]Q E +E [A]Q [Asus2]E +E [A]E E E
 
 |-0--0-0-0-0--0-|-(0)-0--0-(0)-0------||
 |-2--2-2-3-2--3-|-(3)-2--0-(0)-2---12-||
 |-2--2-2-2-2--2-|-(2)-2--2-(2)-2------||
 |-2--2-2-2-2--2-|-(2)-2--2-(2)-2------||
 |-0--0---0------|---------------------||
 |---------------|---------------------||

|
| Q E E E Q E +E Q E +E E Q
 
 |-0--0-0-0-0--0-|-(0)-0--0-(0)-0-0----||
 |-2--2-2-3-2--3-|-(3)-2--0-(0)-2-2----||
 |-2--2-2-2-2--2-|-(2)-2--2-(2)-2-2----||
 |-2--2-2-2-2--2-|-(2)-2--2-(2)-2-2----||
 |-0--0---0------|----------------0----||
 |---------------|---------------------||

Guitar Solo
[A] S S E E E [AsuA2] E E E [Asus4] E S S [A] E S S [Asus2] E E [A] E [AsuA4] E E
 
 |-------12-12----12----------|--------12-------14-14--12-------|
 |-12h14-------14----12-12-12-|-12h=14----14p12-----------14-12-|
 |----------------------------|---------------------------------|
 |----------------------------|---------------------------------|
 |----------------------------|---------------------------------|
 |----------------------------|---------------------------------|

|
| Q Q E E E E +E Q E +E E E E
 
 |-----------0-----0--0-----0-|-(0)-----0--------0-(0)--0--0--0-|
 |-----------2-----0--2-----3-|-(3)-----2--------0-(0)--2--3--2-|
 |--2--------2-----2--2--2--2-|-(2)-----2--------2-(2)--2--2--2-|
 |--2--------2-----2--2--2--2-|-(2)-----2--------2-(2)--2--2--2-|
 |--0--------0-----0-----0--0-|-(0)------------------------0----|
 |----------------------------|---------------------------------|

S S E E S S [AsuA2] E E E [Asus4] E +E [A] E E [Asus2] S S E [A] E E [E] E
 
 |-------12----------12-12-17-17-|-(17)----12-------12--12-12-10---|
 |-12h14----14-12h14-12-12-------|---------12-12h14-14--12-12-10---|
 |-------------------------14-14-|-(14)-14-------------------------|
 |-------------------------------|---------------------------------|
 |-------------------------------|---------------------------------|
 |-------------------------------|---------------------------------|

|
| Q Q E E E E +E Q E +E Q E
 
 |-----------0--------0--0-----0-|--(0)--0-----0----(0)--0-----0---|
 |-----------2--------0--2-----3-|--(3)--2-----0----(0)--2-----0---|
 |--2--------2--------2--2--2--2-|--(2)--2-----2----(2)--2-----1---|
 |--2--------2--------2--2--2--2-|--(2)--2-----2----(2)--2-----2---|
 |--0--------0--------0-----0--0-|--(0)----------------------------|
 |-------------------------------|---------------------------------|

[Esus4] S S E E E [E] E E E [Esus4] E S S E E [E] E E E E E
 
 |-10----10-10-10-10-10-10-10-|-10-----10-10-10-10--10-10-10-|
 |-10h12-12-12-12-12-12-10-10-|-10h=12-12-12-12-12--12-10-10-|
 |----------------------------|------------------------------|
 |----------------------------|------------------------------|
 |----------------------------|------------------------------|
 |----------------------------|------------------------------|

|
| Q E E E Q E +E Q E +E Q E
 
 |-----------0--0-----0-----0-|-(0)-----0-----0-(0)--0-----0-|
 |-----------0--0-----0-----0-|-(0)-----0-----0-(0)--0-----0-|
 |-----------2--2--1--1-----2-|-(2)-----2-----1-(1)--1-----1-|
 |--2--------2--2--2--2-----2-|-(2)-----2-----2-(2)--2-----2-|
 |--2--------------2----------|------------------------------|
 |--0--------------0----------|------------------------------|

[F#m] [B]  
[E] [E] [E] [E] [E] [E] [E] [E] [E] [E] [E] [E] [E] [E] [+E] [E]  
 
 |-5---5-5--5--5-5-5-|-7-7-7-5-5-7-(7)S12--|
 |-5h7-7-7--7--5-7-5-|-5-5-5-5-5-5-(5)S12--|
 |-------------------|---------------------|
 |-------------------|---------------------|
 |-------------------|---------------------|
 |-------------------|---------------------|

|
| E E E E +E E E E E E E E E E E E
 
 |-2-2---2-(2)-2---2-|-7-7---7-7-7------0--|
 |-2-2---2-(2)-2-2-2-|-7-7---7-7-7------0--|
 |-2-2-2-2-(2)-2-2-2-|-8-8-8-8-8-8------0--|
 |-4-4-4-4-(4)-4-4-4-|-9-9-9-9-9-9--9------|
 |-4---4---------4---|-9---9---9----9------|
 |-2---2-------------|-7---7--------7------|

[A] S S E [AsuA2] E E [Asus2A] +E E E [Asus4] E E [A] E E [Asus2] E E [A] E E [D] E
 
 |-12----12-12-12-(12)-12----12-|-14--12-12-12-12--12S10-10-|
 |-12h14-14-14-12-(12)-14-12-12-|-12--12-14-14-14--12S10-10-|
 |------------------------------|---------------------------|
 |------------------------------|---------------------------|
 |------------------------------|---------------------------|
 |------------------------------|---------------------------|

|
| E E E E E Q E +E Q E +E Q E
 
 |--------0--0--0---0---0-----0-|-(0)--0-----0-(0)--0-----2-|
 |--------2--0--2---0---2-----3-|-(3)--2-----0-(0)--2-----3-|
 |--2-----2--2--2---2---2-----2-|-(2)--2-----2-(2)--2-----2-|
 |--2-----2--2--2---2---2-----2-|-(2)--2-----2-(2)--2-----0-|
 |--0--------0------0---------0-|-(0)-----------------------|
 |------------------------------|---------------------------|

S S E E E E E E E [Bm] S S E E E E E E E
 
 |-10----10----10-10--14-10-10-|-10----10-10-10-10--14-10-12-|
 |-10h12----12-10-----10-10----|-10h12----12-10-10--10-10-12-|
 |-----------------------------|-----------------------------|
 |-----------------------------|-----------------------------|
 |-----------------------------|-----------------------------|
 |-----------------------------|-----------------------------|

|
| E E E E +E E E E E E E E +E E E E
 
 |--2-----2--2--2-(2)--2--2--2-|--2-----2-----2-(2)--2--2--2-|
 |--3-----3--3--3-(3)--3--3--3-|--3-----3--3--3-(3)--3--3--3-|
 |--2-----2--2--2-(2)--2--2--2-|--4-----4--4--4-(4)--4--4--4-|
 |--0-----0--0--0-(0)--0--0--0-|--4-----4--4--4-(4)--4--4--4-|
 |-----------------------------|--2--------2-----------------|
 |-----------------------------|-----------------------------|

[A] S S E E E E E E E [E] S S E E E E E E E
 
 |-12----12-12-12-12--12-12-10-|-10----10-10-10-10--10---5-|
 |-12h14-14-14-12-14--12-12-10-|-10h12-12-12-12-12--10---5-|
 |-----------------------------|---------------------------|
 |-----------------------------|---------------------------|
 |-----------------------------|---------------------------|
 |-----------------------------|---------------------------|

|
| E E E E +E Q E E E E E +E E E E
 
 |--0-----0-----0-(0)--0-----0-|--0-----0-----0-(0)--0---0-|
 |--2-----2--2--2-(2)--2-----0-|--0-----0-----0-(0)--0-0-0-|
 |--2-----2--2--2-(2)--2-------|--1-----1--1--1-(1)--1-1-1-|
 |--2-----2--2-----------------|--2-----2--2--2-(2)--2-2-2-|
 |--0--------0-----------------|--2--------2-----------2---|
 |-----------------------------|--0--------0-----------0---|

[D]S S E E E E E E [G]E S S E E E E E E E
 
 |-5---5-5-5--5--5---3-|--3----3-3-3-3-3-3-0--|
 |-5h7-7-7-7--7--5---3-|--3h=5-5-5-5-5-3-3-0--|
 |---------------------|----------------------|
 |---------------------|----------------------|
 |---------------------|----------------------|
 |---------------------|----------------------|

|
| E E E E +E E E E +E E E E E E E E
 
 |-2---2-2-2-(2)-2-2-3-|-(3)---3-3-3-3-3-3-3--|
 |-3---3-3-3-(3)-3-3-0-|-(0)---0-0-0-0-0-0-0--|
 |-2---2-2-2-(2)-2-2-0-|-(0)---0-0-0-0-0-0-0--|
 |-0---0-0-0-(0)-0-0-0-|-(0)---0-0-0-0-0-0-0--|
 |---------------------|---------2---2---2----|
 |---------------------|---------3---3---3----|

D.S. al Coda &
[A]Gtrs I[AsAs2], II[Asus2] [A] [Asus2] [A] [AsAs4]
Q Q E E E E +E Q E +E E E E
 
 |-0--0--0-0---0-|-(0)-0--0-(0)-0-0-0--|
 |-2--2--0-2---0-|-(0)-2--0-(0)-2-3-2--|
 |-2--2--2-2-2-2-|-(2)-2--2-(2)-2-2-2--|
 |-2--2--2-2-2-2-|-(2)-2--2-(2)-2-2-2--|
 |-0--0--0---0---|-----0----------0----|
 |---------------|---------------------|

Outro
[A]E E E [Asus2]E +E [A]Q [G/A]E +E Q E +E Q E
 
 ||--0-0-0-0-(0)-0--3-|-(3)-3--3-(3)-3--3--||
 ||o-2-2-2-0-(0)-2--0-|-(0)-0--0-(0)-0--0-o||
 ||--2-2-2-2-(2)-2--0-|-(0)-0--0-(0)-0--0--||
 ||--2-2-2-2-(2)-2--0-|-(0)-0--0-(0)-0--0--||
 ||o-0---0----------0-|-(0)-0--0-(0)-0----o||
 ||-------------------|--------------------||

[A]Gtr I[G/A]
S S E E S S E E E E
 
 |----------12-12-----------12----|
 |-12h14-14-14-12h14-14--12----10-|
 |--------------------------------|
 |--------------------------------|
 |--------------------------------|
 |--------------------------------|

|
| Gtr II
| E E E E +E Q E
 
 |--0-----0--0--0----(0)--0-----3-|
 |--2-----2--2--0----(0)--2-----0-|
 |--2-----2--2--2----(2)--2-----0-|
 |--2-----2--2--2----(2)--2-----0-|
 |--0--------0------------------0-|
 |--------------------------------|

S S E E S S E E E [A]E S S E E E E E E [G/A]E
 
 |-10--------10-------10--10---5-|-5---5-5-5--5--5-5-3-|
 |-10h=12-12-10-10h12-12--10---5-|-5h7---7-5--7--5-5-3-|
 |-------------------------------|---------------------|
 |-------------------------------|---------------------|
 |-------------------------------|---------------------|
 |-------------------------------|---------------------|

|
| +E Q E +E Q E E E E E +E Q E
 
 |-(3)-----3-----3----(3)--3---0-|-0---0-0-0-(0)-0---3-|
 |-(0)-----0-----0----(0)--0---2-|-2---2-2-0-(0)-2---0-|
 |-(0)-----0-----0----(0)--0---2-|-2---2-2-2-(2)-2---0-|
 |-(0)-----0-----0----(0)--0---2-|-2---2-2-2-(2)-2---0-|
 |-(0)-----0-----0----(0)--0-----|-0-----0-----------0-|
 |-------------------------------|---------------------|

S S E E E E E E [A5]E [Aadd9]W +W
 
 |--3----3-3-3--3--3-0---|-0--------|-(0)----*|
 |--3h=5---5-3--5--3-0---|-0--------|-(0)----*|
 |-----------------------|-6--------|-(6)----*|
 |---------------------7-|-7--------|-(7)----*|
 |---------------------7-|-7--------|-(7)----*|
 |---------------------5-|-5--------|-(5)----*|

|
| +E Q E +E Q E W +W
 
 |-(3)---3---3-(3)-3-----|-0--------|-(0)----*|
 |-(0)---0---0-(0)-0-----|-0--------|-(0)----*|
 |-(0)---0---0-(0)-0-----|-6--------|-(6)----*|
 |-(0)---0---0-(0)-0---7-|-7--------|-(7)----*|
 |-(0)---0---0-(0)-0---7-|-7--------|-(7)----*|
 |---------------------5-|-5--------|-(5)----*| 


Important: The song above is NOT stored on the Chordie server. The original song is hosted at www.azchords.com. Chordie works as a search engine and provides on-the-fly formatting. Chordie does not index songs against artists'/composers' will. To remove this song please click here.

Text color:
Chord color:
Chord grids: 
Font size:    
Page size: 

A A5 Aadd9 Asus2 Asus4 AsusA B Bm D Dsus4 E Esus4 F#m G
Rate #1 of 6 versions

Login - add to songbook

SHARE PAGE  




You need to log in to post comments