Guitar Tabs, Chords and Lyrics
Major upgrade!! After one year development the new version of Chordie is now online! Please give feedback.


It Won't Be Wrong  The Byrds

<i></i>Intro:
 
 E---5---7-5--------5---5--------------------|
 B-7---7-----7-5--5---7---7-5------7---7-5---|
 G----------------------------7--7---7-----7-|
 D-------------------------------------------|
 A-------------------------------------------|
 E-------------------------------------------|

Em* D Em* D Em
[/] [/] [/] [/] [/] [/] [/] [/] [/] [/] [/] [/] [/] [/]  
 
 E-5--5-5-5--------5--5-5-5-------|
 B----------7-7-7-----------7-7---|
 G--------------------------------|
 D--------------------------------|
 A--------------------------------|
 E--------------------------------|

[Em]Ev-'ry time I [C]see you [D]smile. [G] Come to me, [B7]don't be long.
[Em]Let me tell you how my [C]heart goes [D]wild.
G D Em Em*
Please let me love you and it won't be wrong.
[Em]Ev-'ry time I'm [C]in your [D]arms. [G] Come to me, [B7]don't be long.
[Em]You know that I'll ne-ver [C]do you [D]harm.
G D Em Em* A
Please let me love you and it won't be wrong.
Chorus:
[A]Let me love you, then you will see. [G] Come to me, [B7]come to me.
[Em]Let me show you once and [C]we'll be [D]free.
G D Em Em*
Please let me love you and it won't be wrong.
 
 E---5---7-5--------5---5--------------------|
 B-7---7-----7-5--5---7---7-5------7---7-5---|
 G----------------------------7--7---7-----7-|
 D-------------------------------------------|
 A-------------------------------------------|
 E-------------------------------------------|

Em* D Em* D Em
[/] [/] [/] [/] [/] [/] [/] [/] [/] [/] [/] [/] [/] [/]  
 
 E-5--5-5-5--------5--5-5-5-------|
 B----------7-7-7-----------7-7---|
 G--------------------------------|
 D--------------------------------|
 A--------------------------------|
 E--------------------------------|

[Em]Ev-'ry tme I [C]see you [D]smile. [G] Come to me, [B7]don't be long.
[Em]Let me tell you how my [C]heart goes [D]wild.
G D Em Em* A
Please let me love you and it won't be wrong.
Chorus:
[A]Let me love you, then you will see. [G] Come to me, [B7]come to me.
[Em]Let me show you once and [C]we'll be [D]free.
G D Em Em*
Please let me love you and it won't be wrong.
G D Em Em*
Please let me love you and it won't be wrong.
[G]Please let me [D]love you and it [Em]won't be [E9]wrong.
Chord diagrams:
Em Em* C D G B7 A E9
022000 xx5450 032010 x00232 x55433 021202 002220 020132
I had to tune my guitar slightly to the sharp side to make this
sound right. Might just be my CD. but if it sounds a little off
try it.

Important: The song above is NOT stored on the Chordie server. The original song is hosted at www.azchords.com. Chordie works as a search engine and provides on-the-fly formatting. Chordie does not index songs against artists'/composers' will. To remove this song please click here.

Text color:
Chord color:
Chord grids: 
Font size:    
Page size: 

A B7 C D E9 Em G
Rate #1 of 3 versions

Login - add to songbook

SHARE PAGE  




You need to log in to post comments