Guitar Tabs, Chords and Lyrics
Server problems seems to be fixed. Chordie has been experiencing problems with songs disappearing. These issues now seems to be fixed, but still verifying the fix. If you find anything strange, please email admin@chordie.com.


So You Want to Be a Rock 'n' Roll Star  The Byrds

Intro
Q=154
N.C.
[4/4] Gtr I (El. 12-string Gtr.)
H Q E E E E E E +E Q E E E E E +E Q E
 
 |-------------||--------------0----|-------------0-----||
 |-------------||o------------------|-------------2----o||
 |-------------||-------------------|-------------------||
 |-------------||----0--------------|---0---------------||
 |-------------||o-----0-0-(0)------|-----0-0-(0)------o||
 |-----------2-||--3--------------2-|-3--------------2--||

[G]Gtr II[A] (El. Gtr.)[G] [A] [G]
[E]| [E]| [E]| [E]| [+E] | [E]| [E]| [E]| [E]| [E]| [E]| [E]| [+E] | [E]| [E]| [E]|
[/] [/] [/] [/] [/] [/] [/] [/] [/] [/] [/] [/] [/] [/] [/] [/] 
Gtr I
E E E E +E Q. E E E E E Q E
 
 |-------------0------|------------------|
 |-----0--------------|------------------|
 |-------2-(2)--------|---7-7-7--7-6---6-|
 |---0----------------|------------------|
 |--------------------|------------------|
 |-3------------------|------------------|

[A] [G] [A] [G] 
[E]| [E]| [E]| [E]| [+E] | [E]| [E]| [E]| [E]| [E]| [E]| [E]| [+E] | [E]| [E]| [E]|
[/] [/] [/] [/] [/] [/] [/] [/] [/] [/] [/] [/] [/] [/] [/] [/] 
+E Q E +E E E E E E E E +E E E E
 
 |---------------------|--------------------|
 |---------------------|--------------------|
 |-(6)-4---4-(4)---4---|-4------------------|
 |---------------7---7-|---5---5-(5)-4---4--|
 |---------------------|--------------------|
 |---------------------|--------------------|

[A] [G] [A] [G] 
[E]| [E]| [E]| [E]| [+E] | [E]| [E]| [E]| [E]| [E]| [E]| [E]| [+E] | [E]| [E]| [E]|
[/] [/] [/] [/] [/] [/] [/] [/] [/] [/] [/] [/] [/] [/] [/] [/] 
E E E E +E Q E E E E E E E E E
 
 |-------------------|------------------|
 |-------------------|-----5------------|
 |-------------------|---7---7--7-6---6-|
 |-4-5---5-(5)-7---x-|------------------|
 |-------------------|------------------|
 |-------------------|------------------|

[A] [G] [A] [G] 
[E]| [E]| [E]| [E]| [+E] | [E]| [E]| [E]| [E]| [E]| [E]| [E]| [+E] | [E]| [E]| [E]|
[/] [/] [/] [/] [/] [/] [/] [/] [/] [/] [/] [/] [/] [/] [/] [/] 
[+E] [E] [E] [E] [+E] [E] [E] [E] [E] [E] [E] [E] [E] [E] [E] [E]  
 
 |---------------------|-------------------|
 |---------------------|-------------------|
 |-(6)-4---4-(4)-------|-4-----------------|
 |---------------7---7-|---7-5-5S=4-4---4--|
 |---------------------|-------------------|
 |---------------------|-------------------|

[A] [G] [A] [G] [A] [G] 
[E]| [E]| [E]| [E]| [+E] | [E]| [E]| [E]| [E]| [E]| [E]| [E]| [+E] | [E]| [E]| [E]| [E]| [E]| [E]| [E]| [+E] | [E]| [E]| [E]|
[/] [/] [/] [/] [/] [/] [/] [/] [/] [/] [/] [/] [/] [/] [/] [/] [/] [/] [/] [/] [/] [/] [/] [/] 
E Q E +E E Q E E E E E Q E E E E E +E Q E
 
 |-------------------|------------0-----|-------------0-----|
 |-------------------|------------2-----|-------------2-----|
 |-------------------|------------------|-------------------|
 |-4-5---5-(5)-7-----|---0------2-------|---0---------------|
 |-------------------|-----0-0----------|-----0-0-(0)-------|
 |-------------------|-3--------------2-|-3---------------2-|

[A] [G] [A] [G] 
[E]| [E]| [E]| [E]| [+E] | [E]| [E]| [E]| [E]| [E]| [E]| [E]| [+E] | [E]| [E]| [E]|
[/] [/] [/] [/] [/] [/] [/] [/] [/] [/] [/] [/] [/] [/] [/] [/] 
E E E E E Q E E E E E +E Q E
 
 |------------0-----|-------------0-------||
 |------------2-----|-------------2-------||
 |------------------|---------------------||
 |---0------2-------|---0-----------------||
 |-----0-0----------|-----0-0-(0)---------||
 |-3--------------2-|-3---------------2---||

1st - 3rd Verses
$
[G] [A] [G] [A] [G] 
[E]| [E]| [E]| [E]| [+E] | [E]| [E]| [E]| [E]| [E]| [E]| [E]| [+E] | [E]| [E]| [E]|
[/] [/] [/] [/] [/] [/] [/] [/] [/] [/] [/] [/] [/] [/] [/] [/] 
E E E E E Q E E E E E +E Q E
 
 ||-------------0-----|-------------0-----|
 ||o------------2-----|-------------2-----|
 ||-------------------|-------------------|
 ||----0------2-------|---0---------------|
 ||o-----0-0----------|-----0-0-(0)-------|
 ||--3--------------2-|-3---------------2-|

[A] [G] [A] [G] 
[E]| [E]| [E]| [E]| [+E] | [E]| [E]| [E]| [E]| [E]| [E]| [E]| [+E] | [E]| [E]| [E]|
[/] [/] [/] [/] [/] [/] [/] [/] [/] [/] [/] [/] [/] [/] [/] [/] 
E E E E E Q E E E E E +E Q E
 
 |------------0-----|-------------0-----|
 |------------2-----|-------------2-----|
 |------------------|-------------------|
 |---0------2-------|---0---------------|
 |-----0-0----------|-----0-0-(0)-------|
 |-3--------------2-|-3---------------2-|

[A] [G] [A] [G] 
[E]| [E]| [E]| [E]| [+E] | [E]| [E]| [E]| [E]| [E]| [E]| [E]| [+E] | [E]| [E]| [E]|
[/] [/] [/] [/] [/] [/] [/] [/] [/] [/] [/] [/] [/] [/] [/] [/] 
E E E E E Q E E E E E +E Q E
 
 |------------0-----|-------------0-----|
 |------------2-----|-------------2-----|
 |------------------|-------------------|
 |---0------2-------|---0---------------|
 |-----0-0----------|-----0-0-(0)-------|
 |-3--------------2-|-3---------------2-|

[A] [G] [A]  
[E]| [E]| [E]| [E]| [+E] | [E]| [E]| [E]| [E]| [E]| [E]| [E]| [+E] | [E]| [E]| [E]|
[/] [/] [/] [/] [/] [/] [/] [/] [/] [/] [/] [/] [/] [/] [/] [/] 
E E E E E Q E E E E E +E Q E
 
 |------------0-----|-------------0------||
 |------------2-----|-------------2------||
 |------------------|--------------------||
 |---0------2-------|---0-------------0--||
 |-----0-0----------|-----0-0-(0)--------||
 |-3--------------2-|-3------------------||

Chorus
[D]Q E E +E E E E [E]Q E E +E E E E
| | | | | | | | | | | | | |
[/] [/] [/] [/] [/] [/] [/] [/] [/] [/] [/] [/] [/] [/] 
Q E E +Q. E Q E E +Q. E
 
 |-2----------------|------------------|
 |-3----3-(3)-------|----------------3-|
 |-2--2-------------|-1----1-(1)-------|
 |-0----------------|-2--2-------------|
 |------------------|-2----------------|
 |----------------0-|-0----------------|

To Coda
[A]Q E E +E E E E [D/F#]Q E E +E E E [G]E
| | | | | | | | | | | | | |
[/] [/] [/] [/] [/] [/] [/] [/] [/] [/] [/] [/] [/] [/] 
Q E E +E E E E Q. E +E E E E
 
 |------------0-----|-2-------------------||
 |-3--2-0-(0)---0---|-3---------------3--o||
 |----------------0-|-2-------------0-----||
 |------------------|-0-----------0-------||
 |------------------|--------------------o||
 |------------------|-2-----2-(2)---------||

Guitar Solo
[G] [A] [G] [A] [G] [A] [G] [A] [G] 
[E]| [E]| [E]| [E]| [+E] | [E]| [E]| [E]| [E]| [E]| [E]| [E]| [+E] | [E]| [E]| [E]| [E]| [E]| [E]| [E]| [+E] | [E]| [E]| [E]| [E]| [E]| [E]| [E]| [+E] | [E]| [E]| [E]|
[/] [/] [/] [/] [/] [/] [/] [/] [/] [/] [/] [/] [/] [/] [/] [/] [/] [/] [/] [/] [/] [/] [/] [/] [/] [/] [/] [/] [/] [/] [/] [/] 
E E E E E E E E E Q E E E E E E E E E +E Q E E Q E +E Q E
 
 |------------------|------------------|-------------------|--------------------|
 |------------------|------------------|-------------------|--------------------|
 |---7-7-7--7-6---6-|-6-4---4--4---4---|-------------------|--------------------|
 |------------------|------------7---7-|---5-5-5-(5)-4---4-|-4-5---5-(5)-7---x--|
 |------------------|------------------|-------------------|--------------------|
 |------------------|------------------|-------------------|--------------------|

[A] [G] [A] [G] 
[E]| [E]| [E]| [E]| [+E] | [E]| [E]| [E]| [E]| [E]| [E]| [E]| [+E] | [E]| [E]| [E]|
[/] [/] [/] [/] [/] [/] [/] [/] [/] [/] [/] [/] [/] [/] [/] [/] 
E E E E E Q E +E Q E +E Q E
 
 |------------------|---------------------|
 |-----5------------|---------------------|
 |-7-7---7--7-6---6-|-(6)-7---4-(4)-------|
 |------------------|---------------7---7-|
 |------------------|---------------------|
 |------------------|---------------------|

[A] [G] [A] [G] 
[E]| [E]| [E]| [E]| [+E] | [E]| [E]| [E]| [E]| [E]| [E]| [E]| [+E] | [E]| [E]| [E]|
[/] [/] [/] [/] [/] [/] [/] [/] [/] [/] [/] [/] [/] [/] [/] [/] 
[+E] [E] [E] [E] [+E] [E] [E] [E] [E] [E] [E] [E] [+E] [E] [E] [E]  
 
 |---------------------|--------------------|
 |---------------------|--------------------|
 |---------------------|--------------------|
 |-(7)-5-5-5-(5)-4---4-|-4-5---5-(5)-7------|
 |---------------------|---------------5-7--|
 |---------------------|--------------------|

[A] [G] [A] [G] 
[E]| [E]| [E]| [E]| [+E] | [E]| [E]| [E]| [E]| [E]| [E]| [E]| [+E] | [E]| [E]| [E]|
[/] [/] [/] [/] [/] [/] [/] [/] [/] [/] [/] [/] [/] [/] [/] [/] 
E E E E +E E Q E E E E E Q E
 
 |-------------------|------------------|
 |-------------------|------------------|
 |-------4-(4)-------|------------4---7-|
 |-4-5-7-------7-----|---4---7----------|
 |---------------7---|------------------|
 |-------------------|------------------|

[A] [G] [A] [G] 
[E]| [E]| [E]| [E]| [+E] | [E]| [E]| [E]| [E]| [E]| [E]| [E]| [+E] | [E]| [E]| [E]|
[/] [/] [/] [/] [/] [/] [/] [/] [/] [/] [/] [/] [/] [/] [/] [/] 
[E] [E] [E] [E] [E] [E] [E] [E] [+E] [E] [E] [E] [+E] [E] [E] [E]  
 
 |------------------|----------------------|
 |----------5-5-----|-------------------5--|
 |---7---7--------6-|-(6)-4---4-(4)-6------|
 |-----7------------|----------------------|
 |------------------|----------------------|
 |------------------|----------------------|

[A] [G] [A] [G] 
[E]| [E]| [E]| [E]| [+E] | [E]| [E]| [E]| [E]| [E]| [E]| [E]| [+E] | [E]| [E]| [E]|
[/] [/] [/] [/] [/] [/] [/] [/] [/] [/] [/] [/] [/] [/] [/] [/] 
[E] [E] [E] [E] [E] [E] [E] [E] [E] [E] [E] [E] [+E] [E] [E] [E]  
 
 |------------------|-------------------|
 |------------------|-------------------|
 |---7---7s=6-6---6s|=4-4---4-(4)---4---|
 |------------------|-------------7---7-|
 |------------------|-------------------|
 |------------------|-------------------|

D.S. al Coda
[A] [G] [A]  
[E]| [E]| [E]| [E]| [+E] | [E]| [E]| [E]| [E]| [E]| [E]| [E]| [+E] | [E]| [E]| [E]|
[/] [/] [/] [/] [/] [/] [/] [/] [/] [/] [/] [/] [/] [/] [/] [/] 
E E E E +E E E E E E E E +E E Q
 
 |-------------------|--------------------||
 |-------------------|--------------------||
 |-4-----------------|--------------------||
 |---5---5-(5)-4h5-4-|-4-5---5-(5)-7------||
 |-------------------|--------------------||
 |-------------------|--------------------||

Outro
&
[G] [A] [G] [A]  
[E]| [E]| [E]| [E]| [+E] | [E]| [E]| [E]| [E]| [E]| [E]| [E]| [+E] | [E]| [E]| [E]|
[/] [/] [/] [/] [/] [/] [/] [/] [/] [/] [/] [/] [/] [/] [/] [/] 
E E E E E E E E +E Q E +E E E E
 
 |------------------|---------------------|
 |----------5-------|---------------------|
 |---7-7-7----7-6-6-|-(6)-4---4-(4)-------|
 |------------------|---------------7---7-|
 |------------------|---------------------|
 |------------------|---------------------|

[G] [A] [G] [A]  
[E]| [E]| [E]| [E]| [+E] | [E]| [E]| [E]| [E]| [E]| [E]| [E]| [+E] | [E]| [E]| [E]|
[/] [/] [/] [/] [/] [/] [/] [/] [/] [/] [/] [/] [/] [/] [/] [/] 
E E E E +E Q E E E E E +E Q E
 
 |-------------------|--------------------|
 |-------------------|--------------------|
 |-4-----------------|--------------------|
 |---5---5-(5)-4---4-|-4-5-5-5-(5)-7------|
 |-------------------|--------------------|
 |-------------------|--------------------|

[G] [A] [G] [A] [G] 
[E]| [E]| [E]| [E]| [+E] | [E]| [E]| [E]| [E]| [E]| [E]| [E]| [+E] | [E]| [E]| [E]|
[/] [/] [/] [/] [/] [/] [/] [/] [/] [/] [/] [/] [/] [/] [/] [/] 
E E E E +E E E E S S E E E E E E E
 
 |-------------------|-------5-5--5-------|
 |-------5-(5)-7---7-|-7h8----------------|
 |---7-7-------------|--------------7---7-|
 |-------------------|--------------------|
 |-------------------|--------------------|
 |-------------------|--------------------|

[A] [G] [A] [G] 
[E]| [E]| [E]| [E]| [+E] | [E]| [E]| [E]| [E]| [E]| [E]| [E]| [+E] | [E]| [E]| [E]|
[/] [/] [/] [/] [/] [/] [/] [/] [/] [/] [/] [/] [/] [/] [/] [/] 
[E] [E] [E] [E] [+E] [E] [E] [E] [+E] [E] [E] [E] [+E] [E] [E] [E]  
 
 |-------------------|---------------------|
 |---5---------------|---------------------|
 |-----7-6-(6)-4---4-|-(4)-----------------|
 |---------------7---|-----7-5-7-(7)-5-4-4-|
 |-------------------|---------------------|
 |-------------------|---------------------|

[A] [G] [A] [G] [A] [G] 
[E]| [E]| [E]| [E]| [+E] | [E]| [E]| [E]| [E]| [E]| [E]| [E]| [+E] | [E]| [E]| [E]| [E]| [E]| [E]| [E]| [+E] | [E]| [E]| [E]|
[/] [/] [/] [/] [/] [/] [/] [/] [/] [/] [/] [/] [/] [/] [/] [/] [/] [/] [/] [/] [/] [/] [/] [/] 
E E E E E E E E E E E E E E E E Q Q H
 
 |------------------|------------------|------------------*|
 |----------5-------|------------------|------------------*|
 |---7-7-7----7-6-6-|---4------4---4---|-4----------------*|
 |------------------|-------7----7---7-|------------------*|
 |------------------|------------------|------------------*|
 |------------------|------------------|------------------*| 


Important: The song above is NOT stored on the Chordie server. The original song is hosted at www.azchords.com. Chordie works as a search engine and provides on-the-fly formatting. Chordie does not index songs against artists'/composers' will. To remove this song please click here.

Text color:
Chord color:
Chord grids: 
Font size:    
Page size: 

A D D/F# E G
Rate #1 of 4 versions

Login - add to songbook

SHARE PAGE  



You need to log in to post comments