Guitar Tabs, Chords and Lyrics
Major upgrade!! After one year development the new version of Chordie is now online! Please give feedback.


You Won't Have to Cry  The Byrds

<i></i>Intro:
[A4] [A] [A4] [A4] [A] [A4] [A] [A4] [A4] [A] [A4] [A4] [A] [A4] 
[/] [/] [/] [/] [/] [/] [/] [/] [/] [/] [/] [/] [/] [/]  
 
 E----------------------------------------------|
 B---3---2-3----3-2-3---2-3----3---2-3----3-2-3-|
 G----------------------------------------------|
 D----------------------------------------------|
 A-2--------------------------------------------|
 E----------------------------------------------|

[A4]Oh, you [E]know it makes me [A]sad to [Abm]see you feel so [B]bad.
[B]But it's [A]hap-pened to you,[C#m]
[C#m]many times be-[F#]fore.[B7] [B9] [B7]
 
 E---------------2---2-2--2-----------2-|
 B---------------2--------2--4-2-4--2---|
 G---------------3----------------------|
 D---------------4----------------------|
 A---------------4----------------------|
 E---------------2----------------------|

[B7]But [B9]if [E]you will come with [A]me, then [Abm]girl you will [F#m7]see.
[E]That [A]you won't have to [F#7]cry any-[B7]more.[B9] [B7]
 
 E-----------------------------------------------------|
 B----------------------------------0--0-0--0-2-4--2-0-|
 G-----------------------------------------------------|
 D-----------------------------------------------------|
 A-----------------------------------------------------|
 E-----------------------------------------------------|

[B7]There's [B9]no [E]rea-son to feel [A]blue.
[A]Be-cause of [Abm]what he says to [B]you.
[B]And I [A]would'nt want
[A]to [C#m]see yhou hurt no [F#]more.[B7] [B9] [B7]
 
 E---------------------2---2-2--2-------------|
 B---------------------2--------2--4-2-4--2-0-|
 G---------------------3----------------------|
 D---------------------4----------------------|
 A---------------------4----------------------|
 E---------------------2----------------------|

[B7]I [B9]could [E]nev-er do you [A]wrong.
[A]'Cause my [Abm]love for you's too [F#m7]strong.
E A F#7 E E E E7 E E7 E E7pE E7 E7 E
And you won't have to cry any-[/]mor[/]e.[/] [/] [/] [/] [/] [/] [/] [/] [/] [/]
 
 E---------------------------------------------0---------------0---|
 B-----------------------------------0--0-0--3----3-0--3p0--3----0-|
 G-----------------------------------------------------------------|
 D-----------------------------------------------------------------|
 A-----------------------------------------------------------------|
 E-----------------------------------------------------------------|

[D]Oh, I [B7]saw you there with [E]tears in you [A(1)]eyes.
[D]Be-cause he [B7]told you so [E]ma-ny, [A(1)]ma-ny [B7]lies.
[B7]Oh, [B9]you [E]know it isn't [A]right, to [Abm]put your - self up [B]tight.
[B]By [A]think-in' 'bout
[A]the [C#m]things he's done be-[F#]fore.[B7] [B9] [B7]
 
 E-------------------------2---2-2--2-------------|
 B-------------------------2--------2--4-2-4--2-0-|
 G-------------------------3----------------------|
 D-------------------------4----------------------|
 A-------------------------4----------------------|
 E-------------------------2----------------------|

[B9]Just [E]trust the love in [A]me, and [Abm]girl you will [F#m7]see.
[F#m7]That [A]you won't have to [F#7]cry. No, [A]you won't have to [F#]cry.
[F#]No, [A]you won't have to [F#]cry,
F# E E E E7 E E7pE E7 E7 E E7
any-more.
[/] [/] [/] [/] [/] [/] [/] [/] [/] [/]  
 
 E--------------0----------------|
 B---0---0-0--3---3p0---3-3--0-3-|
 G-------------------------------|
 D-------------------------------|
 A-------------------------------|
 E-------------------------------|

Chord diagrams:
Asus4(A4) A(intro) E A Abm B C#m F#
xx2230 xx2220 022100 577655 466444 224442 446654 244322
[B7]021202 [B9]021220 [F#m7]242222 [F#7]242322 [E7]022130 [D]x00232 [A(1)]002220
E,B,G,D,A,E = guitar strings, p = pull off.
This song has some really nice background rhythm played off
of the chords. Listen for it.

Important: The song above is NOT stored on the Chordie server. The original song is hosted at www.azchords.com. Chordie works as a search engine and provides on-the-fly formatting. Chordie does not index songs against artists'/composers' will. To remove this song please click here.

Text color:
Chord color:
Chord grids: 
Font size:    
Page size: 

A A4 Abm B B7 C#m D E E7 F# F#7 F#m7
Rate #1 of 5 versions

Login - add to songbook

SHARE PAGE  



You need to log in to post comments