Guitar Tabs, Chords and Lyrics
Server problems seems to be fixed. Chordie has been experiencing problems with songs disappearing. These issues now seems to be fixed, but still verifying the fix. If you find anything strange, please email admin@chordie.com.


Mess Around   Cage the Elephant

 
 e||-------------------------------||-----------------------------|-----------------------------|
 B||-------------------------------||-----------------------------|-----------------------------|
 G||-------------------------------||-----------------------------|-----------------------------|
 D||-------------------------------||-----------------------------|-----------------------------|
 A||-------------------------------||-----------------------------|-----------------------------|
 E||-12--12-12--12-12\3--3-3--3-3--||-5--5-5-7--7-7-0--0-0--0-0-0-|-5--5-5-7--7-7-0-------------|

 


 


 [Cborus](0:16)Med. Dist.


 x3


 

 
 e||-------------------------------||----------------------------|----------------------------|
 B||-------------------------------||----------------------------|----------------------------|
 G||-------------------------------||----------------------------|----------------------------|
 D||-------------------------------||----------------------------|----------------------------|
 A||-------------------------------||----------------------------|----------------------------|
 E||-12--12-12--12-12\3--3-3--3-3--||-5--5-5-7--7-7-0--0-0--0-0--|-5--5-5-7--7-7-0--0-0--0-0--|

 


 


 [Verse](0:32)Clean


 G7 E7 x3


 

 
 e||-3--3-3--3-3-3-|-3--3-3--3-3-3-|-12--12-12--12-12-12-|-12--12-12--12-12-12-||
 B||-3--3-3--3-3-3-|-3--3-3--3-3-3-|-12--12-12--12-12-12-|-12--12-12--12-12-12-||
 G||-4--4-4--4-4-4-|-4--4-4--4-4-4-|-13--13-13--13-13-13-|-13--13-13--13-13-13-||
 D||-3--3-3--3-3-3-|-3--3-3--3-3-3-|-12--12-12--12-12-12-|-12--12-12--12-12-12-||
 A||-5--5-5--5-5-5-|-5--5-5--5-5-5-|-14--14-14--14-14-14-|-14--14-14--14-14-14-||
 E||-3--3-3--3-3-3-|-3--3-3--3-3-3-|-12--12-12--12-12-12-|-12--12-12--12-12-12-||

 


 


 [Pre-cborus](0:51)Med. Dist.


 


 

 
 e|-----------------------------|----------------------|
 B|-----------------------------|----------------------|
 G|-----------------------------|----------------------|
 D|-----------------------------|----------------------|
 A|-----------------------------|----------------------|
 E|-5--5-5-7--7-7-0--0-0--0-0-0-|-5--5-5-7--7-7-0------|

 


 


 [Cborus](0:57)Med. Dist.


 x3


 

 
 e||-------------------------------||----------------------------|----------------------------|
 B||-------------------------------||----------------------------|----------------------------|
 G||-------------------------------||----------------------------|----------------------------|
 D||-------------------------------||----------------------------|----------------------------|
 A||-------------------------------||----------------------------|----------------------------|
 E||-12--12-12--12-12\3--3-3--3-3--||-5--5-5-7--7-7-0--0-0--0-0--|-5--5-5-7--7-7-0--0-0--0-0--|

 


 


 [Verse](1:13)Clean


 G7 E7 x4


 

 
 e||-3--3-3--3-3-3-|-3--3-3--3-3-3-|-12--12-12--12-12-12-|-12--12-12--12-12-12-||
 B||-3--3-3--3-3-3-|-3--3-3--3-3-3-|-12--12-12--12-12-12-|-12--12-12--12-12-12-||
 G||-4--4-4--4-4-4-|-4--4-4--4-4-4-|-13--13-13--13-13-13-|-13--13-13--13-13-13-||
 D||-3--3-3--3-3-3-|-3--3-3--3-3-3-|-12--12-12--12-12-12-|-12--12-12--12-12-12-||
 A||-5--5-5--5-5-5-|-5--5-5--5-5-5-|-14--14-14--14-14-14-|-14--14-14--14-14-14-||
 E||-3--3-3--3-3-3-|-3--3-3--3-3-3-|-12--12-12--12-12-12-|-12--12-12--12-12-12-||

 


 


 [Pre-cborus](1:39)Med. Dist.


 


 

 
 e|-----------------------------|----------------------|
 B|-----------------------------|----------------------|
 G|-----------------------------|----------------------|
 D|-----------------------------|----------------------|
 A|-----------------------------|----------------------|
 E|-5--5-5-7--7-7-0--0-0--0-0-0-|-5--5-5-7--7-7-0------|

 


 


 [Cborus](1:45)Med. Dist.


 x3


 

 
 e||-------------------------------||----------------------------|----------------------------|
 B||-------------------------------||----------------------------|----------------------------|
 G||-------------------------------||----------------------------|----------------------------|
 D||-------------------------------||----------------------------|----------------------------|
 A||-------------------------------||----------------------------|----------------------------|
 E||-12--12-12--12-12\3--3-3--3-3--||-5--5-5-7--7-7-0--0-0--0-0--|-5--5-5-7--7-7-0--0-0--0-0--|

 


 


 [Bridge](2:02)Dist. - Solo played over Chorus Guitar


 


 "Oh no..................................Oh no.


 

 
 e|-----------10----------|-----------10----12-10-10-------------|
 B|-----10/12----12-------|-----10/12----12----------12-10-12p10=|*see legend
 G|-9---------------------|-9------------------------------------|
 D|-----------------------|--------------------------------------|
 A|-----------------------|--------------------------------------|
 E|-----------------------|--------------------------------------|

 


 


 .................oh no..............oh no...................."


 

 
 e|-----------10----------|-10~~~~~~~12~~~~~~~------------------|
 B|-----10/12----12-------|-------------------10~~~~~~~12~~~~~~~|
 G|=9---------------------|-------------------------------------|
 D|-----------------------|-------------------------------------|
 A|-----------------------|-------------------------------------|
 E|-----------------------|-------------------------------------|

 


 


 [Cborus/Outro](2:17)Dist. - Solo played over Chorus Guitar


 


 "Ahh..................................Ahh.............................................


 

 
 e|---------------10-12-12/14-12-10----|-(12~)~~~------10-12-12/14-12-10-12p10---------|
 B|-(10~)~~~10/12-------------------12-|---------10/12-------------------------12~~~~~~|
 G|------------------------------------|-----------------------------------------------|
 D|------------------------------------|-----------------------------------------------|
 A|------------------------------------|-----------------------------------------------|
 E|------------------------------------|-----------------------------------------------|

 


 


 ..Ahh....................................No she....................Around"


 

 
 e|---------------10-12-12/14-12-10-------|-10~~~~~~12~~~~~~----------------|
 B|---------10/12-------------------12----|-----------------10~~~~~~12~~~~~~|
 G|---------------------------------------|---------------------------------|
 D|---------------------------------------|---------------------------------|
 E|---------------------------------------|---------------------------------|
 E|---------------------------------------|---------------------------------|

 


 


 "Ahh...................................Ahh.............................................


 

 
 e|---------------10-12-12/14-12-10----|-(12~)~~~------12-12-12/14-12-10-12p10-12p10----|
 B|---------10/12-------------------12-|---------10/12-------------------------------12-|
 G|------------------------------------|------------------------------------------------|
 D|------------------------------------|------------------------------------------------|
 A|------------------------------------|------------------------------------------------|
 E|------------------------------------|------------------------------------------------|

 


 


 ..Ahh....................................No she.........................................Around"


 

 
 e|---------------12-12-12/14-14-12p10----|-12~~~~~~14\12~~~~~~12~~~~~~14\12~~~~~~12~~~~~~14\12-|
 B|-(12~)~~~10/12----------------------12-|-----------------------------------------------------|
 D|---------------------------------------|-----------------------------------------------------|
 G|---------------------------------------|-----------------------------------------------------|
 A|---------------------------------------|-----------------------------------------------------|
 E|---------------------------------------|-----------------------------------------------------|


Important: The song above is NOT stored on the Chordie server. The original song is hosted at www.azchords.com. Chordie works as a search engine and provides on-the-fly formatting. Chordie does not index songs against artists'/composers' will. To remove this song please click here.

This song is displayed as text-only. Transposing and tuning is only available for chordpro-songs.
Rate #1 of 2 versions

Jango Player

Login - add to songbook

SHARE PAGE  




You need to log in to post comments