Guitar Tabs, Chords and Lyrics
Server problems seems to be fixed. Chordie has been experiencing problems with songs disappearing. These issues now seems to be fixed, but still verifying the fix. If you find anything strange, please email admin@chordie.com.


Anything  The Calling

Thi is my first tab so take it easy. Credit for chords go's to key_rocks.
 
 -------------------------------------------------------------------------------

Anything- The Calling
 
 -------------------------------------------------------------------------------

Tuning:Half step down
Intro
[E] [Asus2]  
 
 e|-----------------0----------------0------------------------0----------------------|
 B|-------------------0----------------0------------------------0--------------------|
 G|----------------------1---------------1------------------------2------------------|
 D|------- 2------------------2------------------------2----------------2-----------|
 A|-------2------------------2------------------------0---------------0--------------|
 E|----------------------------------------------------------------------------------|

C#m (isnt on the dot but works for me)
 
 e|---0--------------------------0----------------------------0----------------------|
 B|------0-------------------5------5---------------------5-----5--------------------|
 G|--------2---------------------------6----------------------------6----------------|
 D|---------------------6----------------------------6-------------------------------|
 A|-----------------4-----------------------------4----------------------------------|
 E|----------------------------------------------------------------------------------|

[B] [Asus2]  
 
 E]----------0------------------0----------------------0---------------------------|
 B|------------0------------------0--------------------0---------------------------|
 G|--------------4-------------------4-----------------2---------------------------|
 D|-------4--------------4-----------------------------2---------------------------|
 A|---2---------------2--------------------------------0---------------------------|
 E|--------------------------------------------------------------------------------|

chords for rest of song(this credit is given to key-rocks)
intro: E Asus2 C#m B Asus
Verse:
I will be [E]there
Always w[Asus2]aiting
Waitin for y[E]ou
To let me i[Asus2]nside
Where your fire [E]burns
In a ciy of a[Asus2]ngels
Just like a [C#m]river rushing [B]straight into the [Asus2]sea
I'm the one [C#m]thing meant for [B]you and you for [Asus2]me
Chorus:
Whatever you [E]want
Whatever you [Asus2]need
Whatever it [C#m]takes, I'll [B]do anythin[Asus2]g
Verse2:
And as you [E]sleep
eyes to the [Asus2]window
I'm watching you [E]dream
Well are you dreamin of [Asus2]me
So why can't you [E]see
Your all that [Asus2]matters
You know if this [C#m]earth should crack I'll [B]be your solid [Asus2]ground
I will be [C#m]there to catch you [B]when you fall [Asus2]down
Chorus:
If I have to [E]crawl
Get down on my [Asus2]knees
Whatever it [C#m]takes I'll [B]do anyt[Asus2]hing
Bridge:
[As2]I'd [B]Take the stars right [C#m]out of the sky for [E2]you
[As2]I'd [B]end the world give [C#m]you the sun the [E2]moon
Asus2 B E2 (let ring)
For all of time forever lovin you
Im pretty sure theres a little break here that repeats the intro if not shoot me
but in this chorus part There sounds like a second guitar playing the intro.
Chorus:
Whatever you [E]need
Whatever it [C#m]takes I'll [B]do anyt[Asus2]hing
If i have to [E]crawl
Get down on my [Asus2]knees
Whatever it [C#m]takes I'll [B]do anyth[Asus2]ing
( repeat chorus a few times and make sure you end on E)
| / slide up
| \ slide down
| h hammer-on
| p pull-off
| ~ vibrato
| + harmonic
| x Mute note
=============================================

Important: The song above is NOT stored on the Chordie server. The original song is hosted at www.azchords.com. Chordie works as a search engine and provides on-the-fly formatting. Chordie does not index songs against artists'/composers' will. To remove this song please click here.

Text color:
Chord color:
Chord grids: 
Font size:    
Page size: 

Asus2 B C#m E E2
Rate #1 of 11 versions

Jango Player

Login - add to songbook

SHARE PAGE  




You need to log in to post comments