Guitar Tabs, Chords and Lyrics
Server problems seems to be fixed. Chordie has been experiencing problems with songs disappearing. These issues now seems to be fixed, but still verifying the fix. If you find anything strange, please email admin@chordie.com.


Things Will Go My Way  The Calling

This tablature deserves a higher rating! This song is about hope! I dedicate this to
all the desperate person! Dont worry guys things will go on your way in time!
Tuning: standard tuning
INTRO:
 
 e|--2-3-5-5----0-2-3-----3--3------------------------------------------|
 B|-------------3-3-3-----3--3------------------------------------------|
 G|-------------2-2-2-----0--0------------------------------------------|
 D|-------------0-0-0-----0--0------------------------------------------|
 A|-----------------------2--2------------------------------------------|
 E|-----------------------3--3------------------------------------------|

CHORDS USED:
D9 D DSUS G GSus Em Bm
 
 e|---0----2------3-------3----5------------3--------2--------------------|
 B|---3----3------2-------3----3------------3--------3--------------------|
 G|---2----2------3-------0----0------------0--------2--------------------|
 D|---0----0------2-------0----0------------2--------4--------------------|
 A|-----------------------2----2------------2--------2--------------------|
 E|-----------------------3----3------------0-----------------------------|

"Things Will Go My Way"
I [D]came to tell you
Ho[G]w it all began
No[D]thing seems to work out right
I'[G]m broken down again
So[Em] hold me now
And say it's not fo[D]rever
Maybe [G]someday
In [G]time
CHORUS:
D9-D-DSUS G-Gsus
Things will go my way ohooo...
Things will go my way[D]
(DO THE 1ST VERSE'S CHORDS)
I've pushed to get through
The crowds in twisted souls
Just to find I'm right back here
Doing what I'm told
So take my hands
Don't let me surrender
'Cuz maybe someday
Yeah, in time
Things will go my way
Things will go my way
BRIDGE:
For[D] all the lies
I've tasted
Just[G] looking for the truth
For [D]all the dreams I'm chasing
Well[G] what am I to do
When[D] everything's against me
The [G]answers are all wrong
I'm [D]hoping that I'll find out
It w[G]as worth it all along
So [Bm]hold me now
And say it's not fo[D9-D-Dsus]rever
Maybe [G]someday
In time
Things will go my way
Things will go my way
Things will go my way
OUTRO AND DURING THE CHORUS
 
 E---2-3--5--3-2-----------------------------|
 B-----------------5---3---------------------|
 G------------------------2------------------|
 D-------------------------------------------|
 A-------------------------------------------|
 E-------------------------------------------|

THATS ALL BUDDY!!
ENJOY!! godbless
COMMENTS/SUGGESTIONS??!!
ALWAYS PLAY WITH YOUR HEART!

Important: The song above is NOT stored on the Chordie server. The original song is hosted at www.azchords.com. Chordie works as a search engine and provides on-the-fly formatting. Chordie does not index songs against artists'/composers' will. To remove this song please click here.

Text color:
Chord color:
Chord grids: 
Font size:    
Page size: 

Bm D Em G
Rate #1 of 8 versions

Login - add to songbook

SHARE PAGE  



You need to log in to post comments