Guitar Tabs, Chords and Lyrics
Update 25:10. 13:00. Site is back up running again. Songbooks are recovered. Woring on getting search back up..


Coleccionista de canciones  Camila

INTRO
 
 E---------------------------|
 B-2/4-6---2/4---------------|
 G-3/5-6-5-3/5-3----| X2
 D-------6-----4-------------|
 A---------------------------|
 E---------------------------|

[C#]Tu co[(Ab)]leccionista[Bbm] de can[(Fm)]ciones
Dame raz[F#]ones para viv[Ab]ir
[C#]Tú l[Ab]a dueña d[Bbm]e mi su[Fm]eños
Quédate en ell[F#]os y hazme se[Ab]ntir
Y [Bbm]así en tu misterio [Fm]poder
[Bbm]Descubrir el sentimiento e[Fm]terno
Puente###
[C#]Tú con la luna en la cab[Ab]eza
El lugar en donde empi[F#]eza
El motivo y la ilusi[Ab]ón de mi existir
Coro###
Tan solo [C#]tú solamente quiero que se[Bbm]as tú
Mi locura, mi tranquilid[F#]ad y mi de[C#]lirio
Mi co[F#]mpás y mi ca[Ab]mino
Y solo [C#]tú solamente quiero que se[Bbm]as tú
Yo pongo en tus manos mi des[F#]tino
Porque vi[C#]vo para estar[F#]
siempr[F#]e siemp[Ab]re contigo a[C#]mor
INTRO
 
 E-9-11-13----9-11--------------------|
 B---------13------11---2/4-6---2/4---|
 G----------------------3/5-6-5-3/5-3-|
 D----------------------------6-----4-|
 A------------------------------------|
 E------------------------------------|

?? De aquí en adelante es exactamente la misma secuencia de acordes
Ya no queda mas espacio en mi interior
Has llenado con tu luz cada rincón
Es por ti que con el tiempo
mi alma siente diferente
Tan solo tú solamente quiero que seas tú
Mi locura, mi tranquilidad y mi delirio
Mi compás y mi camino
Y solo tú solamente quiero que seas tú
Yo pongo en tus manos mi destino
Porque vivo para estar siempre contigo
[B]Ya no queda más espacio en mi [C#]interior
has llenado con tu luz cada ri[F#]ncón
es por ti que corre el ti[C#]empo
mi alma si[B]ente difer[Ab]ente
S[Ab-Ab]olo t[C#]
Solamente quiero qe seas tú
mi locura, mi tranquilidad & mi delirio
mi compas y mi caminO
solo tú, solamente quiero que seas tú
pongo en tus manos mi destino
porque vivo para estar siempre, siempre , siempre
contigo amor
INTRO
 
 E-9-11-13----9-11--------------------|
 B---------13------11---2/4-6---2/4---|
 G----------------------3/5-6-5-3/5-3-|
 D----------------------------6-----4-|
 A------------------------------------|
 E------------------------------------|


Important: The song above is NOT stored on the Chordie server. The original song is hosted at www.azchords.com. Chordie works as a search engine and provides on-the-fly formatting. Chordie does not index songs against artists'/composers' will. To remove this song please click here.

Text color:
Chord color:
Chord grids: 
Font size:    
Page size: 

Ab Ab-Ab B Bbm C# F# Fm
Rate #3 of 13 versions

Login - add to songbook

SHARE PAGE  



You need to log in to post comments