Guitar Tabs, Chords and Lyrics
Update 25:10. 13:00. Site is back up running again. Songbooks are recovered. Woring on getting search back up..


Quatro vezes você  Capital Inicial

Tom: D
( Em7 A7 ) (4x)
Primeira Parte:
[Em7] Rafaela está tran[A7]cada há dois dias no ba[Em7]nheiro
Enquanto a s[A7]ua mãe,[Em7] toma prozac, enche a [A7]cara e dorme o dia in[Em7]teiro
Parece m[G]uito, mas pod[A7]ia ser
[Em7] Carolina pinta as [A7]unhas roídas de ver[Em7]melho
Em vez de [A7]estudar
[Em7] Fica fazendo p[A7]oses nua no esp[Em7]elho
Parece estra[G]nho, mas pod[A7]ia ser
Refrão:
o que voc[G]ê faz quand[Bm]o
ninquém te [G]vê fazendo[Bm]
ou que voc[C]ê queria fa[D]zer se ninguém p[A7]udesse te ver?
(Intro)
Primeira parte:
[Em7] Gabriel e a namor[A7]ada se divertem no esc[Em7]uro
E [A7]o seu pai [Em7] acha tudo que ele f[A7]az errado e sem fu[Em7]turo
? compli[G]cado, mas po[A7]dia ser
[Em7] Mariana g[A7]osta de beijar outras men[Em7]inas
De vez em qu[A7]ando
[Em7] Beija meninos s[A7]ó pra não cair numa r[Em7]otina
? dife[G]rente, mas po[A7]dia ser
Refrão 2x:
o que voc[G]ê faz quand[Bm]o
ninquém te [G]vê fazendo[Bm]
ou que voc[C]ê queria fa[D]zer se ninguém p[A7]udesse te ver?
Solo: Em7 A7
 
 E|---------------------------------------------------|
 B|---------------------------------------------------|
 G|----0-2-2/4-0--------------------------------------|
 D|-/2-----------2-0h2-0------------------------------|
 A|----------------------2-2/4------------------------|
 E|---------------------------------------------------|
 E|---------------------------------------------------|
 B|---------------------------------------------------|
 G|-----0-------0-------------------------------------|
 D|-2/4---4-4/5---5-5/7-7-7-7/9-9-9-------------------|
 A|---------------------------------------------------|
 E|---------------------------------------------------|
 E|---------------------------------------------------|
 B|---------------------------------------------------|
 G|---------------------------------------------------|
 D|-9-9-9-9-9-9-9-9-9-9-9-9-9-9-----------------------|
 A|---------------------------------------------------|
 E|---------------------------------------------------|
 E|------------15-------------------------------------|
 B|------17-------------------------------------------|
 G|14/16----16----16-16-16----------------------------|
 D|---------------------------------------------------|
 A|---------------------------------------------------|
 E|---------------------------------------------------|
 E|-17-------15----15-15-15-15-15-15--------------------|
 B|----------------17-17-17-17-17-17--------------------|
 G|----16-16----16--------------------------------------|
 D|-----------------------------------------------------|
 A|-----------------------------------------------------|
 E|-----------------------------------------------------|
 E|-------10-------10--------------15----------14-------|
 B|-10/12----12-12----12-12--12/17----17-15-15----------|
 G|-----------------------------------------------------|
 D|-----------------------------------------------------|
 A|-----------------------------------------------------|
 E|-----------------------------------------------------|
 E|-------10-------10--------------15----------1410-----|
 B|-10/12----12-12----12-12--12/17----17-15-15----------|
 G|-----------------------------------------------------|
 D|-----------------------------------------------------|
 A|-----------------------------------------------------|
 E|-----------------------------------------------------|

(Repete refrão 4x)
 
 E|------------------------------------------|
 B|------------------------------------------|
 G|------------------------------------------|
 D|------------------------------------------|
 A|-----2-----0-0-----0----------------------|
 E|-0-3---3/5-----3/5---3--------------------|
 E|------------------------------------------|
 B|------------------------------------------|
 G|------------------------------------------|
 D|------------------------------------------|
 A|-----2-----0-0-----0----------------------|
 E|-0-3---3/5-----3/5---3-0------------------|

( Em7 A7 ) (4x)
 
 ----------------- Acordes -----------------

A7 = X 0 2 0 2 0
Bm = X 2 4 4 3 2
C = X 3 2 0 1 0
D = X X 0 2 3 2
Em7 = 0 2 2 0 3 0
G = 3 2 0 0 3 3

Important: The song above is NOT stored on the Chordie server. The original song is hosted at www.azchords.com. Chordie works as a search engine and provides on-the-fly formatting. Chordie does not index songs against artists'/composers' will. To remove this song please click here.

Text color:
Chord color:
Chord grids: 
Font size:    
Page size: 

A7 Bm C D Em7 G
Rate #2 of 3 versions

Login - add to songbook

SHARE PAGE  



You need to log in to post comments