Guitar Tabs, Chords and Lyrics
Login is temporarily disabled for some users. Do not panic. Will be back in an hour or two. DO NOT REREGISTER!!


I Told You So  Carrie Underwood

CAPO 3
intro:
F7M slide A4 Dm D4 F7M F7M
 
 e--------3-----5--3---1--0---1--3---3 ----3----5---1--------3----------------------------|
 b------1----------------------------------1--------------5----------2----1--------------1--|
 g---2------------------------------------2-------------------------------------------2-----|
 d---------------------------------------------------------------------------------3--------|
 a------------------------------------------------------------------------------------------|
 E------------------------------------------------------------------------------------------|

Ou intro: F7M G Dm G F7M G Dm Am
[F]Suppose I called you up tonight
And [F7M]told you that I l[D]ove [F7M]you
A[F]nd suppose I said I wan[Dm]t to come back h[Am]ome
And [F]suppose I cried and said I [F7M]think I fi[C7]nally learned my [A]lesson
A[F]nd Im tired of spending all my [D]time al[C]one[G]
[F]If I told you that I reali[F7M]zed you're all I ev[D]er [F7M]wanted
[F]And it's killing me to[Dm] be so far a[Am]way
[F]Would you tell my t[F7M]hat you love me too
[F]And would we c[C]ry togeth[F]er
[C]Or would you simpl[Dm]y laugh at me and sa[Gm]y...
Chorus
[C]I told you [F]so, I t[C]old you [Dm]so[C] [Dm]
I told[Gm] you some day you'd come cr[F7M]awling back
And asking [Am]me to take you[F] in[C]
[F]I told you so[Gm] [F] , but you [C]had to[Dm] go[C] [Dm]
Now I've f[Gm]ound somebody new
And you will ne[F]ver break my h[C]eart in t[D]wo a[F]gain
[(F7M] [G] [Dm] [G] [F7M] [G] [Dm] [Am)]  
[F]If I got down on my knees
And told you I[D] was yours fo[F7M]rever
[F7M]Would you get down on y[D]ours too and take my h[Am]and
[F]Would we get that old-time feeling
Would we l[C]augh and t[F]alk for h[C]ours[F]
The [F]way we did w[G/D]hen our love first bega[C]n
[F]Would you tell me that you've missed me too
[Am]And that you've been so lonely
[Gm]And you've waited for the day that I [F7M]returned
[F]And we'd live and love forever
And that Im[F] your o[C]ne and o[F]nly
[C]Or would you say t[Dm]he tables finally turn[Gm]ed
And would you say...
Now I've found somebody new
And you will never break my heart in two again
[F7M] [G] [Dm] [G] [F7M] [G] [Dm] [Am] [F]  
[F7M] [G] [A4] [Dm] [D4] [Am] [G/D] [C7] 
 
 E-------------3-------------------1---------------3-------------------------------------3----------------|
 D-1--------------------3-------------3-----------3--------------------------1------------3---------1-----|
 G---2-----------------2------------2------------2-----------------------------2-----------------------3--|
 D---3----------------2-------------------------------------------------------2---------------------2-----|
 A-----------2--------x------------------------------------------------------------------2-------------3--|
 E-------------3------x--------------------------------------------------------------------3--------------|


Important: The song above is NOT stored on the Chordie server. The original song is hosted at www.azchords.com. Chordie works as a search engine and provides on-the-fly formatting. Chordie does not index songs against artists'/composers' will. To remove this song please click here.

Text color:
Chord color:
Chord grids: 
Font size:    
Page size: 

A A4 Am C C7 D D4 Dm F G G/D Gm
Rate #1 of 12 versions

Login - add to songbook

SHARE PAGE  




You need to log in to post comments