Guitar Tabs, Chords and Lyrics
Major upgrade!! After one year development the new version of Chordie is now online! Please give feedback.


Bye Bye Love  The Cars

Bye-Bye Love
The Cars
1978
Written by Ric Ocasek
 
 E----------------------------------------------
 B----------------------------------------------
 G----------------------------------------------
 D-----------------------------------------2----
 A--2--4--5---2--4--5---2--4--5---2--4--5-------
 E----------------------------------------------

[E] [D] [A] [E] [E] [D] [A] [E] [E] [D] [A] [E] 
(Pre-Verse) (Fill 1)
 
 E--------------------12------10-------9---------
 B-----0-----------------12------10------10---12-
 G---1------2-----2---------13------11------9----
 D-2------4-----2--------------------------------
 A------5-----4----------------------------------
 E-----------------------------------------------

[E]I can't feel this w[D]ay much longer
A E (Fill 1)
Expecting to survive
W[E]ith all these hidden [D]innuendoes
A E (Fill 1)
Just waiting to arrive
[E]It's such a wavy m[D]idnight
A E (Fill 1)
When you slip into insane
[E]Electric angel r[D]ock and roller
A E (Fill 1)
I hear what you're playing
[Gmaj7]It's an [Dmaj7]orangy sky
[Gmaj7]Always it's some [Dmaj7]other guy
[Gmaj7]It's just a broken [Dmaj7]lullaby
B[E]ye b[B]ye l[A]ove b[E]ye b[B]ye l[A]ove
B[E]ye b[B]ye l[A]ove b[E]ye b[B]ye l[A]ove
E D A E + (Pre-Verse)
S[E]ubstitution m[D]ass confusion
A E (Fill 1)
Clouds inside your head
[E]Involving all my [D]energies
A E (Fill 1)
Until you visited
W[E]ith your eyes of porc[D]elain and of bl[A]ue
E (Fill 1)
They shock me into sense
Y[E]ou think you're so [D]illustrious
A E (Fill 1)
You call yourself intense
[Gmaj7]It's an [Dmaj7]orangy sky
[Gmaj7]Always it's some [Dmaj7]other guy
[Gmaj7]It's just a broken [Dmaj7]lullaby
B[E]ye b[B]ye l[A]ove b[E]ye b[B]ye l[A]ove
B[E]ye b[B]ye l[A]ove b[E]ye b[B]ye l[A]ove
[E] [D] [A] [E] [E] [B] [A] [E] [D] [A] [E]  
[E] [B] [A] 
 
 E----------------------------------------------
 B----------------------------------------------
 G----------------------------7--7---12--13-14--
 D-----------------5--5--7^9--9--14-------------
 A--5^7--5^7-7--7--7----------------------------
 E----------------------------------------------
 E----------12----------------------------------
 B------12------15/12---------------------------
 G--16------------------15/14/12---14/12----13--
 D---------------------------------------14-----
 A----------------------------------------------
 E----------------------------------------------

[E] [D] [A] [E] [B] [A]  
 
 E----------------------------------------------
 B----------------------------------12-10/8-----
 G------13-13-14-12--12-9----12-9-9---------9-9-
 D-14---------------------12--------------------
 A----------------------------------------------
 E----------------------------------------------

[E]Substitution [D]mass confusion
A E (Fill 1)
Clouds inside your head
[E]Involving all my [D]energies
A E (Fill 1)
Until you visited
W[E]ith your eyes of porc[D]elain and of bl[A]ue
E (Fill 1)
They shock me into sense
Y[E]ou think you're so [D]illustrious
A E (Fill 1)
You call yourself intense
[Gmaj7]It's an [Dmaj7]orangy sky
[Gmaj7]Always it's some [Dmaj7]other guy
[Gmaj7]It's just a broken [Dmaj7]lullaby
B[E]ye b[B]ye l[A]ove b[E]ye b[B]ye l[A]ove
B[E]ye b[B]ye l[A]ove b[E]ye b[B]ye l[A]ove
E D A E (W/Intro Riff Thrown In To End)

Important: The song above is NOT stored on the Chordie server. The original song is hosted at www.azchords.com. Chordie works as a search engine and provides on-the-fly formatting. Chordie does not index songs against artists'/composers' will. To remove this song please click here.

Text color:
Chord color:
Chord grids: 
Font size:    
Page size: 

A B D Dmaj7 E Gmaj7
Rate #1 of 2 versions

Jango Player

Login - add to songbook

SHARE PAGE  




You need to log in to post comments