Guitar Tabs, Chords and Lyrics
Server problems seems to be fixed. Chordie has been experiencing problems with songs disappearing. These issues now seems to be fixed, but still verifying the fix. If you find anything strange, please email admin@chordie.com.


You Might Think  The Cars

Intro
Q=137
[D5] [G5] [A5] [D5] 
[4/4] Gtr I (El. Gtr. w/ light dist.)
[E] [E] [E] [E] [E] [E] [E] [E] [E] [E] [E] [E] [E] [E] [E] [E] [E] [E] [E] [E] [E] [E] [E] [E] [E] [E] [E] [E] [E] [E] [E] [E]  
 
 |-----------------|-----------------|-----------------|-----------------|
 |-----------------|-----------------|-----------------|-----------------|
 |-----------------|-----------------|-----------------|-----------------|
 |-7-7-7-7-7-7-7---|-----------------|-----------------|-7-7-7-7-7-7-7-7-|
 |-5-5-5-5-5-5-5---|-5-5-5-5-5-5-5---|-7-7-7-7-7-7-7---|-5-5-5-5-5-5-5-5-|
 |---------------0-|-3-3-3-3-3-3-3-0-|-5-5-5-5-5-5-5-0-|-----------------|

E E E E E E E E [G5]E E E E E E E E [A5]E E E E E E E E [B5]E E E S S E E E E
 
 |-----------------|-----------------|-----------------|--------------------|
 |-----------------|-----------------|-----------------|--------------------|
 |-----------------|-----------------|-----------------|--------------------|
 |-7-7-7-7-7-7-7---|-----------------|-----------------|--------------------|
 |-5-5-5-5-5-5-5---|-5-5-5-5-5-5-5---|-7-7-7-7-7-7-7---|-9--9-9-9-9-9-9-----|
 |---------------0-|-3-3-3-3-3-3-3-0-|-5-5-5-5-5-5-5-0-|-7--7-7-7-7-7-7-5-5-|

|
| Gtr II (El. Gtr. w/ dist.)
| E E E E E E Q E E E E E E Q E E E E E E Q Q. S S H
 
 |-----------------|-----------------|-----------------|--------------------|
 |-----------------|-----------------|-----------------|--------------------|
 |-----------------|-----------------|-----------------|--------------------|
 |---7-7-7-7-7-----|---5-5-5-5-5-----|---7-7-7-7-7-----|-4------4-4-4-------|
 |---5-5-5-7-5-----|---5-5-5-7-5-----|---7-7-7-9-7-----|-2------2-2-2---0---|
 |-----------------|-----------------|-----------------|--------------------|

H Q Q
1st - 4th Verses
$
[G5]E E E E E E E E [D5] H E Q. E E E E +H [D5]E E E E E E E E
 
 |-----------------|---------------|----------------||-------------------|
 |-----------------|---------------|----------------||o------------------|
 |-----------------|----------7----|-7-----7-(7)----||-------------------|
 |-----------------|--7-------7----|-7-----7-(7)----||--7-7-7-7-7-7-7----|
 |-5-5-5-5-7-7-7-7-|--5-------5----|-5-----5-(5)----||o-5-5-5-5-5-5-5----|
 |-3-3-3-3-5-5-5-5-|---------------|----------------||----------------0--|

|
| E E E E E E E E +W W W
 
 |-----------------|---------------|----------------||-------------------|
 |-----------------|---------------|----------------||o------------------|
 |-----------------|---------------|----------------||-------------------|
 |---5-5-5-7-7-7-7-|-(7)-----------|----------------||-------------------|
 |---5-5-5-7-5-4-5-|-(5)-----------|----------------||o------------------|
 |-----------------|---------------|----------------||-------------------|

[G5] [A5] [D5] 
[E] [E] [E] [E] [E] [E] [E] [E] [E] [E] [E] [E] [E] [E] [E] [E] [E] [E] [E] [E] [E] [E] [E] [E] [E] [E] [E] [E] [E] [E] [E] [E]  
 
 |-----------------|-----------------|-----------------|------------------|
 |-----------------|-----------------|-----------------|------------------|
 |-----------------|-----------------|-----------------|------------------|
 |-----------------|-----------------|-7-7-7-7-7-7-7-7-|-7-7-7-7-7-7-7----|
 |-5-5-5-5-5-5-5---|-7-7-7-7-7-7-7---|-5-5-5-5-5-5-5-5-|-5-5-5-5-5-5-5----|
 |-3-3-3-3-3-3-3-0-|-5-5-5-5-5-5-5-0-|-----------------|---------------0--|

Pre-Chorus
[G5] [A5] [D5] [B5] [A5] 
[E] [E] [E] [E] [E] [E] [E] [E] [E] [E] [E] [E] [E] [E] [E] [E] [E] [E] [E] [E] [E] [E] [E] [E] [E] [E] [E] [E] [E] [E] [E] [E]  
 
 |-----------------|-----------------|-----------------||------------------|
 |-----------------|-----------------|-----------------||------------------|
 |-----------------|-----------------|-----------------||------------------|
 |-----------------|-----------------|-7-7-7-7-7-7-7-7-||------------------|
 |-5-5-5-5-5-5-5---|-7-7-7-7-7-7-7---|-5-5-5-5-5-5-5-5-||-9-9-9-9-7-7-7-7--|
 |-3-3-3-3-3-3-3-0-|-5-5-5-5-5-5-5-0-|-----------------||-7-7-7-7-5-5-5-5--|

|
| Gtr II
| W W W E E Q E E Q
 
 |-----------------|-----------------|-----------------||------------------|
 |-----------------|-----------------|-----------------||-----3-------2----|
 |-----------------|-----------------|-----------------||---4-------4------|
 |-----------------|-----------------|-----------------||------------------|
 |-----------------|-----------------|-----------------||-2-------0--------|
 |-----------------|-----------------|-----------------||------------------|

Chorus
[G5] [B5] [A5] [G5] [D5] 
[E] [E] [E] [E] [E] [E] [E] [E] [E] [E] [E] [E] [E] [E] [E] [E] [E] [E] [E] [E] [E] [E] [E] [E] [E] [E] [E] [E] [E] [E] [E] [E]  
 
 |-----------------|-----------------|-----------------||------------------|
 |-----------------|-----------------|-----------------||------------------|
 |-----------------|-----------------|-----------------||------------------|
 |-----------------|-----------------|-----------------||-7-7-7-7-7-7-7----|
 |-5-5-5-5-5-5-5-5-|-9-9-9-9-7-7-7-7-|-5-5-5-5-5-5-5-5-||-5-5-5-5-5-5-5----|
 |-3-3-3-3-3-3-3-3-|-7-7-7-7-5-5-5-5-|-3-3-3-3-3-3-3-3-||---------------0--|

|
| E E Q E E E E E E Q E E Q E E E E Q Q W
 
 |-----------------|-----------------|---------2---0---||------------------|
 |-----0---3-2---2-|-----3---2---2---|-----0-3---------||------------------|
 |---0---------4---|---4-------4-----|---0-------------||------------------|
 |-----------------|-----------------|-----------------||------------------|
 |-----------------|-2---------------|-----------------||------------------|
 |-3---------------|-----------------|-3---------------||------------------|

[G5] [A5] [B5] [D5] 
[E] [E] [E] [E] [E] [E] [E] [E] [E] [E] [E] [E] [E] [E] [E] [E] [E] [E] [E] [E] [E] [E] [E] [E] [E] [E] [E] [E] [E] [E] [E] [E]  
 
 |-----------------|-----------------|-----------------|-------------------|
 |-----------------|-----------------|-----------------|-------------------|
 |-----------------|-----------------|-----------------|-------------------|
 |-----------------|-----------------|-----------------|--7-7-7-7-7-7-7----|
 |-5-5-5-5-5-5-5---|-7-7-7-7-7-7-7---|-9-9-9-9-9-9-9-9-|--5-5-5-5-5-5-5----|
 |-3-3-3-3-3-3-3-0-|-5-5-5-5-5-5-5-0-|-7-7-7-7-7-7-7-9-|----------------0--|

|
| W W E E E E E E E E W
 
 |-----------------|-----------------|---2---2---2---2-|-^2----------------|
 |-----------------|-----------------|---3-2---3---2---|-^3----------------|
 |-----------------|-----------------|---4-2---4---2---|-^2----------------|
 |-----------------|-----------------|-----------------|-^0----------------|
 |-----------------|-----------------|-2---------------|-------------------|
 |-----------------|-----------------|-----------------|-------------------|

Interlude
1.
To Coda
[G5] [A5] [D5] [G5] [A5] 
[E] [E] [E] [E] [E] [E] [E] [E] [E] [E] [E] [E] [E] [E] [E] [E] [E] [E] [E] [E] [E] [E] [E] [E] [E] [E] [E] [E] [E] [E] [E] [E]  
 
 |------------------|-------------------||-----------------|------------------||
 |------------------|-------------------||-----------------|-----------------o||
 |------------------|-------------------||-----------------|------------------||
 |------------------|-------------------||-7-7-7-7-7-7-7---|------------------||
 |--5-5-5-5-5-5-5---|--7-7-7-7-7-7-7----||-5-5-5-5-5-5-5---|-5-5-5-5-7-7-7-7-o||
 |--3-3-3-3-3-3-3-0-|--5-5-5-5-5-5-5-0--||---------------0-|-3-3-3-3-5-5-5-5--||

|
| W W E E E E E E E E E E E E E E E E
 
 |-^3---------------|-^0----------------||-----------------|------------------||
 |-^0---------------|-^2----------------||-----------------|-----------------o||
 |-^0---------------|-^2----------------||-----------------|------------------||
 |-^0---------------|-^2----------------||---7-7-7-7-7-7-7-|---5-5-5-7-7-7-7--||
 |-^2---------------|-^0----------------||---5-5-5-7-5-4-5-|---5-5-5-7-5-4-5-o||
 |-^3---------------|-------------------||-----------------|------------------||

Bridge
2.
[D5] W +W [Bm] W [G] W[A]
 
 |-----------|------------||-----------|-------------|
 |-----------|------------||-----------|-------------|
 |-----------|------------||-----------|-------------|
 |--7--------|-(7)--------||-----------|-------------|
 |--5--------|-(5)--------||-----------|-------------|
 |-----------|------------||-----------|-------------|

|
| W +W W H H
 
 |-^2--------|-(2)--------||-^2--------|-^3----^5----|
 |-^3--------|-(3)--------||-^3--------|-^3----^5----|
 |-^2--------|-(2)--------||-^4--------|-^4----^6----|
 |-^0--------|-(0)--------||-^4--------|-^5----^7----|
 |-----------|------------||-^2--------|-^5----^7----|
 |-----------|------------||-----------|-^3----^5----|

[Bm]Gtr II[G] [A] [Bm] [G] [A]
W H H W H H
 
 |-^2--------|-^3----^5----|-^2--------|-^3----^5----|
 |-^3--------|-^3----^5----|-^3--------|-^3----^5----|
 |-^4--------|-^4----^6----|-^4--------|-^4----^6----|
 |-^4--------|-^5----^7----|-^4--------|-^5----^7----|
 |-^2--------|-^5----^7----|-^2--------|-^5----^7----|
 |-----------|-^3----^5----|-----------|-^3----^5----|

Bm G A G5 N.C.
Gtr I
W W E E Q H W
 
 |-----------|-------------|-------------|------|
 |-----------|-------------|-------------|------|
 |-----------|-------------|-------------|------|
 |-----------|-------------|-------------|------|
 |-----------|-------------|-5-----------|------|
 |-----------|-------------|-3-----------|------|

|
| Gtr II
| W H H E E Q H W
 
 |-^2--------|-^3----^5----|-------------|------|
 |-^3--------|-^3----^5----|-------------|------|
 |-^4--------|-^4----^6----|-------------|------|
 |-^4--------|-^5----^7----|-------------|------|
 |-^2--------|-^5----^7----|-5-----------|------|
 |-----------|-^3----^5----|-3-----------|------|

Guitar Solo
[A5]E E Q H W [D] [D5]E E E E E E E E [G5]E E E E E E E E
 
 |-------------|------------||-------------------|--------------------|
 |-------------|------------||-------------------|--------------------|
 |-------------|------------||-------------------|--------------------|
 |-------------|------------||-7-7-7-7-7-7---7---|--------------------|
 |-7-----------|------------||-5-5-5-5-5-5---5---|-5-5-5-5-5-5---5----|
 |-5-----------|------------||-----------------0-|-3-3-3-3-3-3---3-0--|

|
| E E Q H Q H. H E S S E E E E Q E S S E E
 
 |-------------|------------||-----------5-5-5-5-|---7-------7-7-7-5--|
 |-------------|----7-------||-----------7-7-7-5-|-8-8-------8-8-8-7--|
 |-------------|----7-------||-----------7-7-7-6-|-7-7-------7-7-7-7--|
 |-------------|----7-------||-------------------|--------------------|
 |-7-----------|----5-------||-------------------|--------------------|
 |-5-----------|------------||-------------------|--------------------|

[A5] [D5]  
[E] [E] [E] [E] [E] [E] [E] [E] [E] [E] [E] [E] [E] [E] [E] [E]  
 
 |---------------------------|---------------------------------|
 |---------------------------|---------------------------------|
 |---------------------------|---------------------------------|
 |---------------------------|---7---7--7-7--7------7--7-----7-|
 |-7--7-7-7-7--7--7----------|---5---5--5-5--5------5--5-----5-|
 |-5--5-5-5-5--5--5-------0--|---------------------------------|

|
| E E Q E E E E +E E Q E E E E
 
 |-7s=9-------10-10------10--|-(10)-10-10---10-----10----------|
 |-8s10----------10pb12r(10)-|-(10)-10--7---10pb12r10-10-------|
 |-7s=9----------------------|-------------------------9pb11r9-|
 |---------------------------|---------------------------------|
 |---------------------------|---------------------------------|
 |---------------------------|---------------------------------|

[G5]  
[E] [E] [E] [E] [E] [E] [E] [E] [E] [E] [E] [E] [E] [E] [E] [E]  
 
 |------------------|---------------------------|
 |------------------|---------------------------|
 |------------------|---------------------------|
 |-7-7-7--7-7-7-7---|---------------------------|
 |-5-5-5--5-5-5-5---|-5-5-5-5-5--5----5---------|
 |----------------0-|-3-3-3-3-3--3----3----0----|

|
| Q Q E E E E E E Q E S S S S S S
 
 |------------8-8-8-|-8-7-------10-10---10---10-|
 |------------8-8-8-|-8-8-------10-10---10---10-|
 |-7----------9-9-9-|-9-7-------11-11---11---11-|
 |-----9\---9-------|---------9-----------------|
 |------------------|---------------------------|
 |------------------|---------------------------|

[A5] [B5]  
[E] [E] [E] [E] [E] [E] [E] [E] [E] [E] [E] [E] [E] [E] [E] [E]  
 
 |-----------------------|------------------------------|
 |-----------------------|------------------------------|
 |-----------------------|------------------------------|
 |-----------------------|------------------------------|
 |--7--7--7--7-7-7-7-----|---9---9-9--9-9------9-9------|
 |--5--5--5--5-5-5-5---0-|---7---7-7--7-7------7-7-5----|

|
| |-3--|
| E E Q Q E E +E E E E S S S E E E
 
 |-10--9-------------/12-|-(12)-10-7--------------------|
 |-10-10-10\---------/12-|-(12)-10-7-10-7h10p7----------|
 |-11--9-----------------|---------------------9-7------|
 |-----------------------|-------------------------9b11-|
 |-----------------------|------------------------------|
 |-----------------------|------------------------------|

[G5] [D5]  
[E] [E] [E] [E] [E] [E] [E] [E] [E] [E] [E] [E] [E] [E] [E] [E]  
 
 |-------------------------------|---------------------------------|
 |-------------------------------|---------------------------------|
 |-------------------------------|---------------------------------|
 |-------------------------------|--7--7--------7---7--7-7-7---7---|
 |--5--5-5------5---7---7---7--7-|--5--5--------5---5--5-5-5---5---|
 |--3--3-3------3---5---5---5--5-|---------------------------------|

|
| +E E E +E +E +E +E E +Q a +E +E E E S S E
 
 |-------------------------------|---------------------------------|
 |-------------------------------|-------8b10==(8)r(8)-7-----------|
 |-----7-9b12==(9)-(9)-(9)r(9)-7-|-(7)---9b11==(9)r(9)-7-----------|
 |-(9)---------------------------|-----------------------9---------|
 |-------------------------------|-------------------------9s7-5---|
 |-------------------------------|---------------------------------|

Outro
D.S. al Coda &
[D5] [G5] [B5] 
[E] [E] [E] [E] [E] [E] [E] [E] [E] [E] [E] [E] [E] [E] [E] [E] [E] [E] [E] [E] [E] [E] [E] [E] [E] [E] [E] [E] [E] [E] [E] [E] 
 
 |---------------------||-----------------|-----------------|-----------------|
 |---------------------||-----------------|-----------------|-----------------|
 |---------------------||-----------------|-----------------|-----------------|
 |--7-7-7-7--7--7-7-7--||-7-7-7-7-7-7-7---|-----------------|-----------------|
 |--5-5-5-5--5--5-5-5--||-5-5-5-5-5-5-5---|-5-5-5-5-7-7-7-7-|-9-9-9-9-9-9-9---|
 |---------------------||---------------0-|-3-3-3-3-5-5-5-5-|-7-7-7-7-7-7-7-5-|

|
| E E E E +Q Q E E E E E E E E E E E E E E E E E E E E E E E E
 
 |---------------------||-----------------|-----------------|-----------------|
 |--------7-(7)--------||-----------------|-----------------|-----------------|
 |--------7-(7)--------||-----------------|-----------------|-----------------|
 |----7-9-7-(7)--------||---7-7-7-7-7-7-7-|---5-5-5-7-7-7-7-|---4-4-4-4-4-4-4-|
 |-/9------------------||---5-5-5-7-5-4-5-|---5-5-5-7-5-4---|---2-2-2-2-2-2-0-|
 |---------------------||-----------------|---------------7-|-----------------|

[G5]E E E E E E E E [D5]W +W
 
 |-----------------|----------|--------*|
 |-----------------|----------|--------*|
 |-----------------|----------|--------*|
 |-----------------|-7--------|-(7)----*|
 |-5-5-5-5-7-7-7-7-|-5--------|-(5)----*|
 |-3-3-3-3-5-5-5-5-|----------|--------*|

|
| E E E E E E E E W +W
 
 |-----------------|----------|--------*|
 |-----------------|----------|--------*|
 |-----------------|----------|--------*|
 |-----------------|-7--------|-(7)----*|
 |---5-5-5-7-7-7-7-|-5--------|-(5)----*|
 |---3-3-3-5-5-5-5-|----------|--------*| 


Important: The song above is NOT stored on the Chordie server. The original song is hosted at www.azchords.com. Chordie works as a search engine and provides on-the-fly formatting. Chordie does not index songs against artists'/composers' will. To remove this song please click here.

Text color:
Chord color:
Chord grids: 
Font size:    
Page size: 

A A5 B5 Bm D D5 E G G5
Rate #1 of 5 versions

Login - add to songbook

SHARE PAGE  



You need to log in to post comments