Guitar Tabs, Chords and Lyrics
Major upgrade!! After one year development the new version of Chordie is now online! Please give feedback.


Tuesday's Dead  Cat Stevens

"(2)
Tuesday's Dead by Cat Stevens (1971)
CAT STEVENS GUITAR PART:
Intro
 
 <-- Alun --> <-- Cat --> <-- Alun & Cat-->

| / /[(D)(C)] / / |[(G)] / / [D]/ [C]/ | [G]/ / [D]/ [C]/ | [G]/ / / [A]/ |
| [D]/ / / [A]/ | [D]/ / / [A]/ | [D]/ / [D]/ [C]/ | [G]/ / / [A]/ |
| [D]/ / / [A]/ | [D]/ / / [A]/ | [D]/ / / / |
Verse 1
[A] Oh, i[D]f I make a m[A]ark i[D]n time, [A] [G]I can't say the ma[A]rk i[D]s mine,[A]
I[D]'m only the u[A]n-d[D]erline [A] [G]of the word,[E]
Yes, I[D]'m like him, [A] j[D]ust like you,[A] [G]I can't tell you w[A]hat [D]to do,[A]
Like ev[D]erybody else I[A]'m sea[D]rching through [A] w[G]hat I've he[A]ard![D]
Whoa-oh-oh, w[G]here do you [D]go w[G]hen you don't want [A]no one to kn[D]ow?
[D] [G] [D] [G] [A] [G]  
 
 Who-oo-oo told tomor-row Tuesday's dead----? 

Verse 2
| [D]/ / / [A]/ | [D]/ / / [A]/ | [D]/ / / [A]/ | [D]/ / / / |
Oh, pr[D]eacher won't you pa[A]int [D]my dream?[A]
Wo[G]n't you show me wh[A]ere yo[D]u've been?[A]
S[D]how me what I ha[A]ve-[D]n't seen [A] to e[G]ase my mind,[E]
'Cause [D]I will learn to u[A]n-d[D]erstand, [A] [G]if I have a h[A]elp-i[D]ng hand,[A]
I wou[D]ldn't make an-ot[A]her d[D]emand [A] a[G]ll my li[A]fe![D]
Whoa-oh-oh, w[G]here do you g[D]o wh[G]en you don't want [A]no one to k[D]now?
[D] [G] [D] [G] [A] [G]  
 
 Who-oo-oo told tomor-row Tuesday's dead----?

Instrumental Verse (3) (Steel drum on album or Hummed vocal on some live versions)
[Bummmmm----]  
||: [G]/ / / / |[C/G] / / / / | [G]/ / / / |[C/G] / / / / :|| (x3)
| [G]/ / / / |[C/G] / / / / | [G]/ / / / | [A]/ / / / |
| [D]/ / / [A]/ | [D]/ / / [A]/ |
Verse 4
Wh[D]at's my sex? [A] Wh[D]at's my name? [A] A[G]ll in all it's a[A]ll t[D]he same,[A]
Ev[D]erybody plays [A]a d[D]ifferent game,[A] t[G]hat is all,[E]
Now, M[D]an may live,[A] m[D]an may die, [A] s[G]earching for the q[A]uest-i[D]on why,[A]
But i[D]f he tries to ru[A]le t[D]he sky, [A] h[G]e must fa[A]ll--[D]-!
Whoa-oh-oh, wh[G]ere do you [D]go w[G]hen you don't want [A]no one to k[D]now?
[D] [G] [D] [G] [A] [G]  
 
 Who-oo-oo told tomor-row Tuesday's dead----?

Verse 5
Now ev[D]ery second, o[A]n t[D]he nose,[A] the hu[G]mdrum of t[A]he c[D]ity grows,[A]
Rea[D]ching out be-yo[A]nd t[D]he throes [A] [G]of our time, [E]
W[D]e must try to sha[A]ke i[D]t down, [A] [G]do our best to br[A]eak t[D]he ground,[A]
T[D]ry to turn the wo[A]rld [D]around [A] o[G]ne more ti[A]me![D]
Yes, [D]we must try to sh[A]ake [D]it down,[A] [G]do our best to br[A]eak t[D]he ground,[A]
T[D]ry to turn the wo[A]rld a[D]round [A] o[G]ne more ti[A]me![D]
Whoa-oh-oh, wh[G]ere do you [D]go w[G]hen you don't want [A]no one to k[D]now?
[D] [G] [D] [G] [A] [G]  
 
 Who-oo-oo told tomor-row Tuesday's dead----?

Instrumental Verse 3 again
Coda
| [D]/ / / [A]/ | [D]/ / / / |
| [D]/ / / / | / / / / | [G]/ / / / | [D]/ / / / |
| [D]/ / / / | / / / / | [G]/ / / [A]/ | [D]/ / / / |
ALUN DAVIES GUITAR PART:
CAPO AT 5th FRET
Intro
 
 <-- Alun --> <-- Cat --> <-- Alun & Cat-->

| / / [A]/ [G]/ | [D]/ /[(A)(G)] / / |[(D)] / / [A]/ [G]/ | [D]/ / / [E]/ |
| [A]/ / / [E]/ | [A]/ / / [E]/ | [A]/ / [A]/ [G]/ | [D]/ / / [E]/ |
| [A]/ / / [E]/ | [A]/ / / [E]/ | [A]/ / / / |
Verse 1
[E] Oh, i[A]f I make a m[E]ark i[A]n time, [E] [D]I can't say the ma[E]rk i[A]s mine,[E]
I[A]'m only the u[E]n-d[A]erline [E] o[D]f the word,[B]
Yes, I[A]'m like him, [E] j[A]ust like you,[E] [D]I can't tell you w[E]hat [A]to do,[E]
Like ev[A]erybody else I[E]'m sea[A]rching through [E] w[D]hat I've he[E]ard![A]
Whoa-oh-oh, w[D]here do you g[A]o wh[D]en you don't want [E]no one to kn[A]ow?
[A] [D] [A] [D] [E] [D]  
 
 Who-oo-oo told tomor-row Tuesday's dead----? 

Verse 2
| [A]/ / / [E]/ | [A]/ / / [E]/ | [A]/ / / [E]/ | [A]/ / / / |
Oh, pr[A]eacher won't you pa[E]int [A]my dream?[E]
Wo[D]n't you show me wh[E]ere yo[A]u've been?[E]
S[A]how me what I ha[E]ve-[A]n't seen [E] to e[D]ase my mind,[B]
'Cause [A]I will learn to u[E]n-d[A]erstand, [E] [D]if I have a h[E]elp-i[A]ng hand,[E]
I wou[A]ldn't make an-ot[E]her d[A]emand [E] a[D]ll my li[E]fe![A]
Whoa-oh-oh, w[D]here do you [A]go w[D]hen you don't want [E]no one to k[A]now?
[A] [D] [A] [D] [E] [D]  
 
 Who-oo-oo told tomor-row Tuesday's dead----?

Instrumental Verse (3) (Steel drum on album or Hummed vocal on some live versions)
[Bummmmm----]  
||: [D]/ / / / |[G/D] / / /[(G6)] / | [D]/ / / / |[G/D] / / /[(G6)] / :|| (x3)
| [D]/ / / / |[G/D] / / /[(G6)] / | [D]/ / / / | [E]/ / / / | [A]/ / / [E]/ | [A]/ / / [E]/ |
Verse 4
Wh[A]at's my sex? [E] Wh[A]at's my name? [E] A[D]ll in all it's a[E]ll t[A]he same,[E]
Ev[A]erybody plays [E]a d[A]ifferent game,[E] t[D]hat is all,[B]
Now, M[A]an may live,[E] m[A]an may die, [E] s[D]earching for the q[E]uest-i[A]on why,[E]
But i[A]f he tries to ru[E]le t[A]he sky, [E] h[D]e must fa[E]ll--[A]-!
Whoa-oh-oh, w[D]here do you g[A]o w[D]hen you don't want n[E]o one to kn[A]ow?
[A] [D] [A] [D] [E] [D]  
 
 Who-oo-oo told tomor-row Tuesday's dead----?

Verse 5
Now ev[A]ery second, o[E]n t[A]he nose,[E] the hu[D]mdrum of t[E]he c[A]ity grows,[E]
Rea[A]ching out be-yo[E]nd t[A]he throes [E] [D]of our time,[B]
W[A]e must try to sha[E]ke i[A]t down, [E] d[D]o our best to br[E]eak t[A]he ground,[E]
T[A]ry to turn the wo[E]rld [A]around [E] o[D]ne more ti[E]me--[A]-!
Yes, [A]we must try to sh[E]ake [A]it down,[E] [D]do our best to br[E]eak [A]the ground,[E]
T[A]ry to turn the wo[E]rld a[A]round [E] o[D]ne more ti[E]me--[A]-!
Whoa-oh-oh, wh[D]ere do you [A]go w[D]hen you don't want [E]no one to k[A]now?
[A] [D] [A] [D] [E] [D]  
 
 Who-oo-oo told tomor-row Tuesday's dead----?

Instrumental Verse 3 again
Coda
| [A]/ / / [E]/ | [A]/ / / / |
| [A]/ / / / | / / / / | [D]/ / / / | [A]/ / / / |
| [A]/ / / / | / / / / | [D]/ / / [E]/ | [A]/ / / / |
 
 ------------------------------------------------------------

CAT'S CHORDS:
Intro:
[(D)(C)(G)] [D] [C] [G] [D] [C] [G] [A]  
 
 E ---------|----/10-10---8-|-7--/10-10---8-|--7-7---7-7---7--5--|
 B ---------|----/10-10---8-|-8--/10-10---8-|--8-8---8-8---8--5--|
 G ---------|----/11-11---9-|-7--/11-11---9-|--7-7---7-7---7--6--|
 D ---------|----/12-12--10-|-0--/12-12--10-|--0-0---0-0---0--7--|
 A ---------|----/12-12--10-|----/12-12--10-|-----------------7--|
 E ---------|----/10-10---8-|----/10-10---8-|-----------------5--|

[D] [A] [D] [A] [D] [D] [C] [G] [A]  
 
 E -2--2-2---5--|-2-2--2-2--2-5-|-2--/10-10---8-|-7-7--7-7--7--5-|
 B -3--3-3---5--|-3-3--3-3--3-5-|-3--/10-10---8-|-8-8--8-8--8--5-|
 G -2--2-2---6--|-2-2--2-2--2-6-|-2--/11-11---9-|-7-7--7-7--7--6-|
 D -0--0-0---7--|-0-0--0-0--0-7-|-0--/12-12--10-|-0-0--0-0--0--7-|
 A ----------7--|-------------7-|----/12-12--10-|--------------7-|
 E ----------5--|-------------5-|----/10-10---8-|--------------5-|

[D] [A] [D] [A] [D]  
 
 E -2--2-2---5--|-2-2--2-2--2--5-|--2---------|
 B -3--3-3---5--|-3-3--3-3--3--5-|--3---------| (Playing the bottom
 G -2--2-2---6--|-2-2--2-2--2--6-|--2---------| 3 strings throughout
 D -0--0-0---7--|-0-0--0-0--0--7-|--0---------| the intro is optional)
 A ----------7--|--------------7-|------------|
 E ----------5--|--------------5-|------------|

Main verses:
xx0[D]232 x02[A]220 32[G]0003 02[E]2100
IRM IMR MI R MRI
Verse 3:
320[G]003 3[C/G]x2013
RM L R M IL (x - ring finger dampens 5th string)
 
 --------------------------------------------------------------------------------

Alun's Chords: (Relative to CAPO at 5th fret)
Intro: <-- Cat -->
[A] [G] [D] [(A)(G)(D)] [A] [G] [D] [E]  
 
 E --/5-5---3--|--2--------|-----/5-5---3--|--2-2---2-2---2--4---|
 B --/5-5---3--|--3--------|-----/5-5---3--|--3-3---3-3---3--5---|
 G --/6-6---4--|--2--------|-----/6-6---4--|--2-2---2-2---2--4---|
 D --/7-7---5--|--0--------|-----/7-7---5--|--0-0---0-0---0------|
 A --/7-7---5--|-----------|-----/7-7---5--|---------------------|
 E --/5-5---3--|-----------|-----/5-5---3--|---------------------|

[A] [E] [A] [E] [A] [A] [G] [D] [E]  
 
 E --0---0-0--0-|-0-0---0-0--0-0-|--0--/5-5---3-|-2-2--2-2--2-4--|
 B --2---2-2--0-|-2-2---2-2--2-0-|--2--/5-5---3-|-3-3--3-3--3-5--|
 G --2---2-2--1-|-2-2---2-2--2-1-|--2--/6-6---4-|-2-2--2-2--2-4--|
 D --2---2-2--2-|-2-2---2-2--2-2-|--2--/7-7---5-|-0-0--0-0--0----|
 A --0---0-0--2-|-0-0---0-0--0-2-|--0--/7-7---5-|----------------|
 E -----------0-|--------------0-|-----/5-5---3-|----------------|

[A] [E] [A] [E] [A]  
 
 E --0---0-0--0-|-0-0---0-0--0-0-|--0---------|
 B --2---2-2--0-|-2-2---2-2--2-0-|--2---------|
 G --2---2-2--1-|-2-2---2-2--2-1-|--2---------| (Playing the bottom
 D --2---2-2--2-|-2-2---2-2--2-2-|--2---------| 3 strings throughout
 A --0---0-0--2-|-0-0---0-0--0-2-|--0---------| the intro is optional)
 E -----------0-|--------------0-|------------|

"

Important: The song above is NOT stored on the Chordie server. The original song is hosted at www.azchords.com. Chordie works as a search engine and provides on-the-fly formatting. Chordie does not index songs against artists'/composers' will. To remove this song please click here.

Text color:
Chord color:
Chord grids: 
Font size:    
Page size: 

A B C C/G D E G G/D
Rate #1 of 6 versions

Jango Player

Login - add to songbook

SHARE PAGE  




You need to log in to post comments