Guitar Tabs, Chords and Lyrics
Server problems seems to be fixed. Chordie has been experiencing problems with songs disappearing. These issues now seems to be fixed, but still verifying the fix. If you find anything strange, please email admin@chordie.com.


You Cross My Path  The Charlatans

Intro A (0:04)
[D] [D] [D] [D] [D]  
Intro B (0:17)
[D] [A#] [G] [A#] [C] [D]  
[D] [A#] [G] [A#] [C] [D]  
Verse (0:43)
[D]I donā??t think you quite know wh[A#]o I am
I am the [G]son of loyalty I hope you un[A#]derstand[C]
[D]I donā??t think you quite know wh[A#]o i am oh
I am the [G]sum of everything I donā??t [A#]want you to un[C]derstand
Prechorus (1:09)
[D]You cross my path Iā??ll take you down
You bloodied me with howling hands
[A#]The wretched games the tortured souls
The flowing scarves the debutantes
The [G]crushing blows the sordid scenes
But what you did was so obs[A#]cene
Chorus (1:21)
I will [D]ride again and Iā??ll take you[A#] down like that
You will d[G]ie up there alone, Iā??ll take you[A#] down like that
Verse (1:36)
[D]You think about me every[A#]day
You dream of w[G]ays to keep your evil though[A#]ts at bay[C]
[D]You think about me ever[A#]yday
You dream of [G]ways to keep your sick-o tho[A#]ughts at bay[C]
Prechorus (2:01)
[D]You cross my path Iā??ll take you down
You bloodied me with howling hands
[A#]The wretched games the tortured souls
The flowing scarves the debutantes
The [G]crushing blows the sordid scenes
But what you did was so obs[A#]cene
 
 e-----------|-----------|
 b-----------|-----------|
 g-----------|--------5--|
 d----5-7----|----5-7----|
 a--5-----5--|--5--------|
 e-----------|-----------|

x3
Chorus (2:13)
I will [D]ride again and Iā??ll take you[A#] down like that
You will d[G]ie up there alone, Iā??ll take you[A#] down like that
 
 e-----------|-----------|
 b-----------|-----------|
 g-----------|--------5--|
 d----5-7----|----5-7----|
 a--5-----5--|--5--------|
 e-----------|-----------|

x3
Verse (2:27)
I will s[D]ail into your kingdom, be the s[A#]ound of the abyss
Could be the s[G]ound of your own voice, be the s[A#]ound of your first kiss
I am the [D]sound of iraq, I am the sou[A#]nd of the red sea
I am the vo[G]ice of the almighty[A#]
I am the [A#]sound of your own dreams
(Harmonics)
 
 e----------------|
 b--16-16---------|
 g---------17-19--|
 d----------------|
 a----------------|
 e----------------|

Prechorus (2:54)
[D]You cross my path Iā??ll take you down
You bloodied me with howling hands
[A#]The wretched games the tortured souls
The flowing scarves the debutantes
The [G]crushing blows the sordid scenes
But what you did was so obs[A#]cene
Chorus (3:07)
I will [D]ride again and Iā??ll take you[A#] down like that
You will d[G]ie up there alone, Iā??ll take you[A#] down like that
I will [D]die for no one I will cry for [A#]no one
You will d[G]ie up there alone you will die up [A#]there alone
 
 e-----------|-----------|-----------|
 b-----------|-----------|-----------|
 g-----------|--------5--|-----------|
 d----5-7----|----5-7----|----5-7----|
 a--5-----5--|--5--------|--5-----8--|
 e-----------|-----------|-----------|

x3 x3 x2
Bridge (3:33)
Iā??ll[D] get you, Iā??ll get you, Iā??ll get you, Iā??ll get you
Iā??ll[A#] get you, Iā??ll get you, Iā??ll get you, Iā??ll get you
Iā??ll[G] get you, Iā??ll get you, Iā??ll get you, Iā??ll get you
Iā??l[A#]l get you, Iā??ll get you, Iā??ll get you, Iā??ll get you
Outro (3:47)
 
 e--------------------------|
 b--------------------------|
 g--------------------------|
 d----7---8-7---7--8-7------|
 a--5---5-----8--------8-5--|
 e--------------------------| 


Important: The song above is NOT stored on the Chordie server. The original song is hosted at www.azchords.com. Chordie works as a search engine and provides on-the-fly formatting. Chordie does not index songs against artists'/composers' will. To remove this song please click here.

Text color:
Chord color:
Chord grids: 
Font size:    
Page size: 

A# C D G
Rate #1 of 1 versions

Login - add to songbook

SHARE PAGE  



You need to log in to post comments