Guitar Tabs, Chords and Lyrics
Server problems seems to be fixed. Chordie has been experiencing problems with songs disappearing. These issues now seems to be fixed, but still verifying the fix. If you find anything strange, please email admin@chordie.com.


Safe Harbour  Charlotte Campbell

Capo 3
 
 e-------------------------------------------------------------------------|
 b--------3--------3---------3---------3-----------------------------------|
 g----------0--------0---------0----------0--------------------------------|
 d-------------------------------------------------------------------------|
 a-------------------------------------------------------------------------|
 e-----3--------3---------3--------3---------------------------------------|
 e---------------------------------------------------------------------------|
 b---------3-----------3-----------3-----------3-----------3----------3------|
 g------------0-----------0-----------0-----------0-----------0--------0-----|
 d---------------------------------------------------------------------------|
 a------------------------------3-----------2--------------------------------|
 e------3----------2-----------------------------------3----------3----------|

Maybe I'll regret this in the morning
Maybe I will wish that I'd been wise
Maybe I'll regret this in the morning
But right now I can't see past your eyes
 
 e--------------------------------------------------------------------------------------|
 b--------3-----------3-----------3---------3--------3---------3--------3-------3-------|
 g-----------0-----------0-----------0--------0---------0---------0-------0------0------|
 d--------------------------------------------------------------------------------------|
 a-----------------------------3---------2--------3---------2---------------------------|
 e----3-----------3---------------------------------------------------3--------3--------|

They say you only ever look back on what you didn't do
 
 e--------------------------------------------------------------------------------------|
 b--------3-----------3-----------3---------3--------3---------3----------3-------3-----|
 g-----------0-----------0-----------0--------0---------0---------0----------0-------0--|
 d--------------------------------------------------------------------------------------|
 a-----------------------------3---------2--------3---------2---------------------------|
 e----3-----------2----------------------------------------------------3--------3-------|

And I don't want to look back on never having you
 
 e---------------------------------------------------------------------------|
 b---------3-----------3-----------3-----------3-----------3----------3------|
 g------------0-----------0-----------0-----------0-----------0--------0-----|
 d---------------------------------------------------------------------------|
 a------------------------------3-----------2--------------------------------|
 e------3----------2-----------------------------------3----------3----------|

Maybe I will wake up feeling foolish
But I know I won't remember in a year
Maybe I will wake up feeling foolish
The only thing that's stopping me is fear
 
 e--------------------------------------------------------------------------------------|
 b--------3-----------3-----------3---------3--------3---------3--------3-------3-------|
 g-----------0-----------0-----------0--------0---------0---------0-------0------0------|
 d--------------------------------------------------------------------------------------|
 a-----------------------------3---------2--------3---------2---------------------------|
 e----3-----------3---------------------------------------------------3--------3--------|

They say you only ever look back on what you didn't do
 
 e------------------------------------------------------------------------------3-------|
 b--------3-----------3-----------3---------3--------3---------3--------------3---------|
 g-----------0-----------0-----------0--------0---------0---------0---------2-----------|
 d------------------------------------------------------------------------0-------------|
 a-----------------------------3---------2--------3---------2---------------------------|
 e----3-----------2---------------------------------------------------------------------|

And I don't want to look back on never having you
So t[G]hrow a[C]way t[Em]he bowline[D]s
And all the doubt in your mind
Who needs a safe harbour, who needs a safe harbour?
One day we will all look back and wonder
About the roads we met but didn't take
One day I know I'll look back and wonder
But you could be my favourite mistake
They say you only ever look back on what you didn't do
And I don't want to look back on never having you
So throw away the bowlines
And all the doubt in your mind
Who needs a safe harbour, who needs a safe harbour?
I will be lost at sea
I will be lost at sea
I will be lost but free
So throw away the bowlines
And all the doubt in your mind
Who needs a safe harbour, who needs a safe harbour?
So throw away the bowlines
And all the doubt in your mind
Who needs a safe harbour, who needs a safe harbour?
Who needs a safe harbour, who needs a safe harbour?

Important: The song above is NOT stored on the Chordie server. The original song is hosted at www.azchords.com. Chordie works as a search engine and provides on-the-fly formatting. Chordie does not index songs against artists'/composers' will. To remove this song please click here.

Text color:
Chord color:
Chord grids: 
Font size:    
Page size: 

C D Em G
Rate #1 of 1 versions

Jango Player

Login - add to songbook

SHARE PAGE  



You need to log in to post comments