Guitar Tabs, Chords and Lyrics
Login is temporarily disabled for some users. Do not panic. Will be back in an hour or two. DO NOT REREGISTER!!


Call on Me  Chicago

(Intro)
(Use a phaser pedal)
[Fmaj7] [Gmaj7] [Gm9] 
 
 e|--1---------------3-------------------3------5---------5--------------------|
 B|--1---------------3-------------------3-----------------3-------------------|
 G|--1---2-----------3-----4-------------3------------------3------------------|
 D|--1---2-----------3-----4-------------3-------------------------------------|
 A|--1---3-----------3-----5-------------3------5------------------------------|
 E|--1---------------3-------------------3-------------------------------------|

[A#m] [Cm] [Am9] 
 
 e|---1------------3-------------------5------7---------7---------------------|
 B|---1---2--------3-----4-------------5----------------5---------------------|
 G|---1---3--------3-----5-------------5----------------5---------------------|
 D|---1---3--------3-----5-------------5----------------5---------------------|
 A|---1------------3-------------------5------7-------------------------------|
 E|---1------------3-------------------5--------------------------------------|

(Verse)
The feelin' was clear clear as a blue sky on a sunny day Everything was you
Then came a change, when I said I would soon be leavin' you Nothing else to do, oooh
You've got to find someone else to somehow take my place Share his life with you, oo ooo
[A] [C#m7] [Bm7] [G#m7]  
 
 e|---5-----------------4-------------------------7--------------------4--------------------|
 B|---5-----------------4----5--------------------7--------------------4--------------------|
 G|---5---6-------------4-------------------------7--------------------4--------------------|
 D|---5---7-------------4----6--------------------7--------------------4--------------------|
 A|---5---7-------------4-------------------------7----9---------------4-----6--------------|
 E|---5-----------------4-------------------------7--------------------4--------------------|

'Cause no one made me feel the way I felt with you, oh oohh
But please remember I'll never lose the thought of you
But if you need a friend, you can always count on me
[Dmaj7] [C#m7] [Bm7]  
 
 e|----2----------------4--------------------2--------------------|
 B|----2----------------4---5----------------2---3----------------|
 G|----2----------------4---6----------------2---4----------------|
 D|----0----------------4--------------------2--------------------|
 A|----x----------------4--------------------2--------------------|
 E|----x----------------4--------------------2--------------------|

(Chorus)
Call on me 'cause I love you You know I do, you love me too. oo ooo oooo
Call on me 'cause I love you You know I do, you love me too. oo ooo oooo
Count on me 'cause I love you, You know I do, you love me too, oo ooo
[F#m7] [Gmaj7] [F#m7] [Gmaj7] [F#m7] [Gmaj7] [F#]  
 
 e|----------2------------2---------2------------2---------2-------------2--------2--------|
 B|----------2----------------------2----------------------2----------------------2--------|
 G|----------2----------------------2----------------------2----------------------2--3-----|
 D|----------2----------------------2----------------------2----------------------2--4-----|
 A|----------2---4--------2---------2---4--------2---------2---4---------2--------2--4-----|
 E|----------2--------------3-------2------------3---------2-------------3--------2--------|

[F#] [G] [G#]  
 
 e|--2----------3-----------4----------------------------------------|
 B|--2----------3-----------4----------------------------------------|
 G|--2--3-------3---4-------4---5------------------------------------|
 D|--2--4-------3---5-------4---6------------------------------------|
 A|--2--4-------3---5-------4---6------------------------------------|
 E|--2----------3-----------4----------------------------------------|

(Outro)
[Gmaj7]  
 
 e|-----2------------------------------------------------------------|
 B|------------------------------------------------------------------|
 G|------------------------------------------------------------------|
 D|------------------------------------------------------------------|
 A|-----2------------------------------------------------------------|
 E|-----3------------------------------------------------------------|


Important: The song above is NOT stored on the Chordie server. The original song is hosted at www.azchords.com. Chordie works as a search engine and provides on-the-fly formatting. Chordie does not index songs against artists'/composers' will. To remove this song please click here.

Text color:
Chord color:
Chord grids: 
Font size:    
Page size: 

A A#m Am9 Bm7 C#m7 Cm Dmaj7 F# F#m7 Fmaj7 G G# G#m7 Gm9 Gmaj7
Rate #1 of 3 versions

Jango Player

Login - add to songbook

SHARE PAGE  




You need to log in to post comments